>
 >
Polyamorous Ver

Polyamorous Ver Guitar Tabs

Breaking Benjamin - Polyamorous Ver chords, tabs, tablatures, lyrics

Guitar lessons | Add/correct | Request | Top 50 tabs Artists:  A B C D E F G H I J K L M N O P Q R S T U V W X Y Z 0-9

Polyamorous Ver Guitar Tabs – Breaking Benjamin

CD, Sheet music, Poster

Do you like Polyamorous Ver? Share with your friends now
Tabs
Tuning Drop D down 1/2 step

Db Ab Db Gb Bb Eb
also known as
C# G# C# F# A# D#

Intro: w/dist and echo 
Eb|-----------------------------|
Bb|-----------------------------|
Gb|-----------------------------|
Db|--9~------5~------9~------5~-|
Ab|--9~------5~------9~------5~-|
Db|--9~------5~------9~------5~-|

Intro 2: 4x 
Eb|---------------------------------|
Bb|---------------------------------|
Gb|---------------------------------|
Db|--9-9--0-12-12--0-5-5--0-5-5--0--|
Ab|--9-9--0-12-12--0-5-5--0-5-5--0--|
Db|--9-9--0-12-12--0-5-5--0-5-5--0--|

Riff 2: 4x 
Eb|----------------------------------|
Bb|----------------------------------|
Gb|----------------------------------|
Db|--9-9-------------9-9-------------|
Ab|--9-9--10-10-9-9--9-9--12-12-9-9--|
Db|--9-9-------------9-9-------------|

Verse: 3x 
Eb|------------------------------------------------------------------|
Bb|------------------------------------------------------------------|
Gb|------------------------------------------------------------------|
Db|--9-9-------------4-4-------------5-5-------------2-2-------------|
Ab|--9-9--10-10-9-9--4-4--10-10-9-9--5-5--9-9-10-10--2-2--10-10-9-9--|
Db|--9-9-------------4-4-------------5-5-------------2-2-------------|
P.M. . .  .. .. . .  . .  .. .. . .  . .  .. .. . .  . .  .. .. . .

then: 2x
Eb|-----------------------------------------------------------|
Bb|-----------------------------------------------------------|
Gb|-----------------------------------------------------------|
Db|--9-9-------------4-4-------------5-5-------------2-2-2-5--|
Ab|--9-9--10-10-9-9--4-4--10-10-9-9--5-5--9-9-10-10--2-2-2-5--|
Db|--9-9-------------4-4-------------5-5-------------2-2-2-5--|
P.M. . .  .. .. . .  . .  .. .. . .  . .  .. .. . .  . . .

Chorus: 2x
eB|-------------------------------------------------------------------------------|
Bb|-------------------------------------------------------------------------------|
Gb|-------------------------------------------------------------------------------|
Db|-0--7--5---0-5-4-0-4----0--7--5---0-5-4-0-4---0--7--5--x-x--0--4--5--0-5-4-0---|
Ab|-0--7--5---0-5-4-0-4----0--7--5---0-5-4-0-4---0--7--5--x-x--0--4--5--0-5-4-0-4-|
Db|-0--7--5---0-5-4-0-4----0--7--5---0-5-4-0-4---0--7--5--X-X--0--4--5--0-5-4-0-4-|

then this 2x  
Eb|----------------------------------|
Bb|----------------------------------|
Gb|----------------------------------|
Db|--9-9-------------9-9-------------|
Ab|--9-9--10-10-9-9--9-9--12-12-9-9--|
Db|--9-9-------------9-9-------------|

   Verse                                                     (3 Times)
Eb|------------------------------------------------------------------|
Bb|------------------------------------------------------------------|
Gb|------------------------------------------------------------------|
Db|--9-9-------------4-4-------------5-5-------------2-2-------------|
Ab|--9-9--10-10-9-9--4-4--10-10-9-9--5-5--9-9-10-10--2-2--10-10-9-9--|
Db|--9-9-------------4-4-------------5-5-------------2-2-------------|
P.M. . .  .. .. . .  . .  .. .. . .  . .  .. .. . .  . .  .. .. . .

                                                      (2 Times)
Eb|-----------------------------------------------------------|
Bb|-----------------------------------------------------------|
Gb|-----------------------------------------------------------|
Db|--9-9-------------4-4-------------5-5-------------2-2-2-5--|
Ab|--9-9--10-10-9-9--4-4--10-10-9-9--5-5--9-9-10-10--2-2-2-5--|
Db|--9-9-------------4-4-------------5-5-------------2-2-2-5--|
P.M. . .  .. .. . .  . .  .. .. . .  . .  .. .. . .  . . .
 
   Chorus                                                                     (2 Times)
eB|-------------------------------------------------------------------------------|
Bb|-------------------------------------------------------------------------------|
Gb|-------------------------------------------------------------------------------|
Db|-0--7--5---0-5-4-0-4----0--7--5---0-5-4-0-4---0--7--5--x-x--0--4--5--0-5-4-0-4-|
Ab|-0--7--5---0-5-4-0-4----0--7--5---0-5-4-0-4---0--7--5--x-x--0--4--5--0-5-4-0-4-|
Db|-0--7--5---0-5-4-0-4----0--7--5---0-5-4-0-4---0--7--5--X-X--0--4--5--0-5-4-0-4-|

    Interlude Riff 1             (2 Times)
Eb|--------------------------------------|
Bb|--------------------------------------|
Gb|--4----6/7/6----7/6--7---7/6--4--7/6--|
Db|--x----x/x/x----x/x--x---x/x--x--x/x--|
Ab|--2----4/5/4----5/4--5---5/4--2--5/4--|
Db|--------------------------------------|

Interlude 2                                                                                 (2 Times)
eb|--------------------------------------------------------------------------------|
Bb|--------------------------------------------------------------------------------|
Gb|--------------------------------------------------------------------------------|
Db|--------------------------------------------------------------------------------|
Ab|-99999999-11111111-12121212-44444444-5-5-5-5--4-4-4-4--5-5-5-5-5-5-5-5-5-5-5-5--|
Db|-99999999-11111111-12121212-44444444-5-5-5-5--4-4-4-4--5-5-5-5-5-5-5-5-5-5-5-5--|
P.M................................................................................

eb|----------------------------------------------|
Bb|----------------------------------------------|
Gb|----------------------------------------------|
Db|----------------------------------------------|
Ab|----------------------------------------------|
Db|--4-4-4-4--2-2-2-2-2-2-2-2--5-5-5-5--4-4-4-4--|
P.M...............................................

eb|----------------------------------------------------|
Bb|----------------------------------------------------|                              
Gb|----------------------------------------------------|
Db|--0-0---5-4-0-4---0-0---5-4-0-4---0-0---5-4-0-4---0-|
Ab|--0-0---5-4-0-4---0-0---5-4-0-4---0-0---5-4-0-4---0-|
Db|--0-0---5-4-0-4---0-0---5-4-0-4---0-0---5-4-0-4---0-|

Chorus                                                                     (4 Times)
eb|-------------------------------------------------------------------------------|
Bb|-------------------------------------------------------------------------------|
Gb|-------------------------------------------------------------------------------|
Db|-0--7--5---0-5-4-0-4----0--7--5---0-5-4-0-4---0--7--5--x-x--0--4--5--0-5-4-0-4-|
Ab|-0--7--5---0-5-4-0-4----0--7--5---0-5-4-0-4---0--7--5--x-x--0--4--5--0-5-4-0-4-|
Db|-0--7--5---0-5-4-0-4----0--7--5---0-5-4-0-4---0--7--5--X-X--0--4--5--0-5-4-0-4-|
                                
Outro: 2x
eB|---------------------------------------------------------------------|
Bb|---------------------------------------------------------------------|
Gb|---------------------------------------------------------------------|
Db|--0-------4-------5--------x-x------0-------4-------5----0-5-4-0-4---|
Ab|--0-------4-------5--------x-x------0-------4-------5----0-5-4-0-4---|
Db|--0-------4-------5--------X-X------0-------4-------5----0-5-4-0-4---|
                           
Eb|----------------------------------------------------|
Bb|----------------------------------------------------|
Gb|----------------------------------------------------|
Db|--9-9-------------9-9-------------9-9-------------0-|
Ab|--9-9--10-10-9-9--9-9--12-12-9-9--9-9--10-10-9-9--0-|
Db|--9-9-------------9-9-------------9-9-------------0-|





Comments


Popular Breaking Benjamin tabs & chords
Forever Chords
I Will Not Bow 1 Chords
Next To Nothing Chords
Enjoy The Silence Drum Tabs
Sooner Or Later Drum Tabs
Away 5 Tabs
Dance With The Devil Tabs
Diary Of Jane 4 Tabs
Polyamorous 9 Tabs
Who Wants To Live Forever 2 Tabs


Song lyrics



↑ Back to top | Tablatures and chords are parodies/interpretations of the original songs. You may use it for private study, scholarship, research or language learning purposes only
© 2014 AZChords.com Contact us | Privacy policy | DMCA | Add/correct tabs | Request tabs | Top 50 tabs