>
 >
Polyamorous 1

Polyamorous 1 Guitar Tabs

Breaking Benjamin - Polyamorous 1 chords, tabs, tablatures, lyrics

Guitar lessons | Add/correct | Request | Top 50 tabs Artists:  A B C D E F G H I J K L M N O P Q R S T U V W X Y Z 0-9

Polyamorous 1 Guitar Tabs – Breaking Benjamin

CD, Sheet music, Poster

Do you like Polyamorous 1? Share with your friends now
Bass TabsBass Tabs v2ChordsDrum TabsTabsTabs v2Tabs v3Tabs v4Tabs v5Tabs v6Tabs v7Tabs v8Tabs v9
Intro w/ Effects   (2 Times)
Eb|--------------------------|
Bb|--------------------------|
Gb|--------------------------|
Db|--9------5------9------5--|
Ab|--9------5------9------5--|
Db|--9------5------9------5--|

  Intro After Effects     (4 Times)
Eb|---------------------------------|
Bb|---------------------------------|
Gb|---------------------------------|
Db|--9-9--0-12-12--0-5-5--0-5-5--0--|
Ab|--9-9--0-12-12--0-5-5--0-5-5--0--|
Db|--9-9--0-12-12--0-5-5--0-5-5--0--|
                                 * (Not played 4th time)

                             (4 Times)
Eb|------------------------------------|
Bb|------------------------------------|
Gb|------------------------------------|
Db|--9-9-------------9-9---------------|
Ab|--9-9--10-10-9-9--9-9--12-12-10-10--|
Db|--9-9-------------9-9---------------|


   Verse                                               (3 Times)
Eb|-------------------------------------------------------------|
Bb|-------------------------------------------------------------|
Gb|-------------------------------------------------------------|
Db|--9-9-------------4-4--5-5-4-4--5-5--4-4-5-5--2-2--5-5-4-4---|
Ab|--9-9--10-10-9-9--4-4-----------5-5-----------2-2------------|
Db|--9-9-------------4-4-----------5-5-----------2-2------------|
P.M. . .  .. .. . .  . .  . . . .  . .  . . . .  . .  . . . . 

                                                        (1 Time)
Eb|-------------------------------------------------------------|
Bb|-------------------------------------------------------------|
Gb|-------------------------------------------------------------|
Db|--9-9-------------4-4--5-5-4-4--5-5--4-4-5-5--2-2--4---------|
Ab|--9-9--10-10-9-9--4-4-----------5-5-----------2-2--4---------|
Db|--9-9-------------4-4-----------5-5-----------2-2--4---------|
P.M. . .  .. .. . .  . .  . . . .  . .  . . . .  . .  

   Chorus                                                                              (1 Time)
Eb|-------------------------------------------------------------------------------------------|
Bb|-------------------------------------------------------------------------------------------|
Gb|-------------------------------------------------------------------------------------------|
Db|--0---7---5---0-5-4-0-4----0---7---5---0-5-4-0-4---0---7---5---X-X---0---4---5---0-5-4-0-4-|
Ab|--0---7---5---0-5-4-0-4----0---7---5---0-5-4-0-4---0---7---5---X-X---0---4---5---0-5-4-0-4-|
Db|--0---7---5---0-5-4-0-4----0---7---5---0-5-4-0-4---0---7---5---X-X---0---4---5---0-5-4-0-4-|
                   

                            (2 Times) 
Eb|------------------------------------|
Bb|------------------------------------|
Gb|------------------------------------|
Db|--9-9-------------9-9---------------|
Ab|--9-9--10-10-9-9--9-9--12-12-10-10--|
Db|--9-9-------------9-9---------------|


   Verse                                               (3 Times)
Eb|-------------------------------------------------------------|
Bb|-------------------------------------------------------------|
Gb|-------------------------------------------------------------|
Db|--9-9-------------4-4--5-5-4-4--5-5--4-4-5-5--2-2--5-5-4-4---|
Ab|--9-9--10-10-9-9--4-4-----------5-5-----------2-2------------|
Db|--9-9-------------4-4-----------5-5-----------2-2------------|
P.M. . .  .. .. . .  . .  . . . .  . .  . . . .  . .  . . . . 

                                                        (1 Time)
Eb|-------------------------------------------------------------|
Bb|-------------------------------------------------------------|
Gb|-------------------------------------------------------------|
Db|--9-9-------------4-4--5-5-4-4--5-5--4-4-5-5--2-2--4---------|
Ab|--9-9--10-10-9-9--4-4-----------5-5-----------2-2--4---------|
Db|--9-9-------------4-4-----------5-5-----------2-2--4---------|
P.M. . .  .. .. . .  . .  . . . .  . .  . . . .  . .  

   Chorus                                                                             (2 Times)
Eb|-------------------------------------------------------------------------------------------|
Bb|-------------------------------------------------------------------------------------------|
Gb|-------------------------------------------------------------------------------------------|
Db|--0---7---5---0-5-4-0-4----0---7---5---0-5-4-0-4---0---7---5---X-X---0---4---5---0-5-4-0-4-|
Ab|--0---7---5---0-5-4-0-4----0---7---5---0-5-4-0-4---0---7---5---X-X---0---4---5---0-5-4-0-4-|
Db|--0---7---5---0-5-4-0-4----0---7---5---0-5-4-0-4---0---7---5---X-X---0---4---5---0-5-4-0-4-|
                   

  Interlude Riff 1                                                                         (1 Time)
Eb|--------------------------------------------------------------------------------------------------|
Bb|--------------------------------------------------------------------------------------------------|
Gb|--4--------/-6----/-7----/-6--------/-7----/-6----/-7------------/-6----/-4--------/-7----/-6-----|
Db|--x--------/-x----/-x----/-x--------/-x----/-x----/-x------------/-x----/-x--------/-x----/-x-----|
Ab|--2--------/-4----/-5----/-4--------/-5----/-4----/-5------------/-4----/-2--------/-5----/-4-----|
Db|--------------------------------------------------------------------------------------------------|
                     
 Interlude Riff 2                                                                           (1 Time)
Eb|--------------------------------------------------------------------------------------------------|
Bb|--------------------------------------------------------------------------------------------------|
Gb|--44444444-/-6666-/-7777-/-66666666-/-7777-/-6666-/-777777777777-/-6666-/-44444444-/-7777-/-6666--|
Db|--xxxxxxxx-/-xxxx-/-xxxx-/-xxxxxxxx-/-xxxx-/-xxxx-/-xxxxxxxxxxxx-/-xxxx-/-xxxxxxxx-/-xxxx-/-xxxx--|
Ab|--22222222-/-4444-/-5555-/-44444444-/-5555-/-4444-/-555555555555-/-4444-/-22222222-/-5555-/-4444--|
Db|--------------------------------------------------------------------------------------------------|

 Interlude Riff 3                                                                                  (1 Time)
Eb|---------------------------------------------------------------------------------------------------------|
Bb|---------------------------------------------------------------------------------------------------------|
Gb|---------------------------------------------------------------------------------------------------------|
Db|---------------------------------------------------------------------------------------------------------|
Ab|---------------------------------------------------------------------------------------------------------|
Db|--9-9-9-9-9-9-9-9--11-11-11-11--12-12-12-12--4-4-4-4-4-4-4-4--5-5-5-5--4-4-4-4--5-5-5-5-5-5-5-5-5-5-5-5--|
P.M. . . . . . . . .  .. .. .. ..  .. .. .. ..  . . . . . . . .  . . . .  . . . .  . . . . . . . . . . . .
 
Eb|----------------------------------------------|
Bb|----------------------------------------------|
Gb|----------------------------------------------|
Db|----------------------------------------------|
Ab|----------------------------------------------|
Db|--4-4-4-4--2-2-2-2-2-2-2-2--5-5-5-5--4-4-4-4--|
     . . . .  . . . . . . . .  . . . .  . . . .  

  Interlude Riff 4                                                                                  (1 Time)
Eb|---------------------------------------------------------------------------------------------------------|
Bb|---------------------------------------------------------------------------------------------------------|
Gb|---------------------------------------------------------------------------------------------------------|
Db|--9-9-9-9-9-9-9-9--11-11-11-11--12-12-12-12--4-4-4-4-4-4-4-4--5-5-5-5--4-4-4-4--5-5-5-5-5-5-5-5-5-5-5-5--|
Ab|--9-9-9-9-9-9-9-9--11-11-11-11--12-12-12-12--4-4-4-4-4-4-4-4--5-5-5-5--4-4-4-4--5-5-5-5-5-5-5-5-5-5-5-5--|
Db|--9-9-9-9-9-9-9-9--11-11-11-11--12-12-12-12--4-4-4-4-4-4-4-4--5-5-5-5--4-4-4-4--5-5-5-5-5-5-5-5-5-5-5-5--|

Eb|----------------------------------------------|
Bb|----------------------------------------------|
Gb|----------------------------------------------|
Db|--4-4-4-4--2-2-2-2-2-2-2-2--5-5-5-5--4-4-4-4--|
Ab|--4-4-4-4--2-2-2-2-2-2-2-2--5-5-5-5--4-4-4-4--|
Db|--4-4-4-4--2-2-2-2-2-2-2-2--5-5-5-5--4-4-4-4--|

                               
Eb|----------------------------------------------------|
Bb|----------------------------------------------------|
Gb|----------------------------------------------------|
Db|--0-0---5-4-0-4---0-0---5-4-0-4---0-0---5-4-0-4---0-|
Ab|--0-0---5-4-0-4---0-0---5-4-0-4---0-0---5-4-0-4---0-|
Db|--0-0---5-4-0-4---0-0---5-4-0-4---0-0---5-4-0-4---0-|
 
   Chorus                                                                             (2 Times)
Eb|-------------------------------------------------------------------------------------------|
Bb|-------------------------------------------------------------------------------------------|
Gb|-------------------------------------------------------------------------------------------|
Db|--0---7---5---0-5-4-0-4----0---7---5---0-5-4-0-4---0---7---5---X-X---0---4---5---0-5-4-0-4-|
Ab|--0---7---5---0-5-4-0-4----0---7---5---0-5-4-0-4---0---7---5---X-X---0---4---5---0-5-4-0-4-|
Db|--0---7---5---0-5-4-0-4----0---7---5---0-5-4-0-4---0---7---5---X-X---0---4---5---0-5-4-0-4-|

                                      (2 Times)
Eb|----------------------------------------------------------------------|
Bb|----------------------------------------------------------------------|
Gb|----------------------------------------------------------------------|
Db|--0-------4-------5--------X-X------0-------4-------5----0-5-4-0-4----|
Ab|--0-------4-------5--------X-X------0-------4-------5----0-5-4-0-4----|
Db|--0-------4-------5--------X-X------0-------4-------5----0-5-4-0-4----|
  |                                                                      |
Eb|----------------------------------------------------------------------|
Bb|----------------------------------------------------------------------|
Gb|------7-7-6---7-7-----7-7---------------7-7-6---7-7-9-9-7-7-6---7-7---|
Db|--7---------------7-----------------7---------------------------------|
Ab|----------------------------------------------------------------------|
Db|----------------------------------------------------------------------|

                             
Eb|----------------------------------------------------------|
Bb|----------------------------------------------------------|
Gb|----------------------------------------------------------|
Db|--9-9-------------9-9---------------9-9-------------9\\\--|
Ab|--9-9--10-10-9-9--9-9--12-12-10-10--9-9--10-10-9-9--9\\\--|
Db|--9-9-------------9-9---------------9-9-------------9\\\--|





Comments


Popular Breaking Benjamin tabs & chords
Intro Bass Tabs
Until The End Bass Tabs
Shallow Bay Drum Tabs
Away 2 Tabs
Blow Me Away Tabs
Had Enough 1 Tabs
Medicate 1 Tabs
Polyamorous 6 Tabs
Polyamorous Ver Tabs
Who Wants To Live Forever 1 Tabs


Song lyrics



↑ Back to top | Tablatures and chords are parodies/interpretations of the original songs. You may use it for private study, scholarship, research or language learning purposes only
© 2014 AZChords.com Contact us | Privacy policy | DMCA | Add/correct tabs | Request tabs | Top 50 tabs