» » »

Polyamorous Tabs (ver.3)

Artists:  A B C D E F G H I J K L M N O P Q R S T U V W X Y Z # 

Polyamorous Tabs (ver.3)

Breaking Benjamin
Rating:
0/5 (0 votes)

Hard to play? Try these video lessons and learn fast.
                Polyamorous
Breaking benjamin


This is in dropped D tuning

intro 1 with effects   play 1x
e------------------------------------------|
b------------------------------------------|
g------------------------------------------|
d---9--------5---------9--------5----------|
a---9--------5---------9--------5----------|
d---9--------5---------9--------5----------|


intro 2 with distortion    play 4x
e------------------------------------------------------|
b------------------------------------------------------|
g------------------------------------------------------|
d------99-0---1212-0---55-0--55--0---------------------|    
a------99-0---1212-0---55-0--55--0---------------------|
d------99-0---1212-0---55-0--55--0---------------------|


verse

e----------------------------------------------------|
b----------------------------------------------------|
g----------------------------------------------------|         play 4x
d---99---10-10-9-9--------99---12-12--10-10----------|
a---99--------------------99-------------------------|
d---99--------------------99-------------------------|



verse 2     plat 3x

e----------------------------------------------------------------------|
b----------------------------------------------------------------------|
g----------------------------------------------------------------------|
d----99--10-10-9-9-------44--5-5-4-4------55--4-4-5-5------22--5-5-4-4-|
a----99------------------44---------------55---------------22----------|
d----99------------------44---------------55---------------22----------|
palm mute ..............................................

then
e---------------------------------------------------------------------|
b---------------------------------------------------------------------|
g---------------------------------------------------------------------|
d-----99--10-10-9-9-------44--5-5-4-4------55--4-4-5-5-----22-----44--|       
a-----99------------------44---------------55--------------22-----44--|
d-----99------------------44---------------55--------------22-----44--|


chorus

e------------------------------------------------------
b------------------------------------------------------
g------------------------------------------------------
d-----0-----7-----5-----0-5-4-0-4----------------------              play 2x
a-----0-----7-----5-----0-5-4-0-4----------------------
d-----0-----7-----5-----0-5-4-0-4----------------------



e-----------------------------------------------------------------------------|
b-----------------------------------------------------------------------------|
g-----------------------------------------------------------------------------|
d-----0-----7-----5---xx------0---4----5----------0-5-4-0-4-------------------|
a-----0-----7-----5---xx------0---4----5----------0-5-4-0-4-------------------|
d-----0-----7-----5---xx-----0----4----5----------0-5-4-0-4-------------------|



bridge-palm muted    
e-----------------------------------------------------------------------
b-----------------------------------------------------------------------
g-----------------------------------------------------------------------
d-----------------------------------------------------------------------
a-----------------------------------------------------------------------
d-------99999999--1010101010--121212121212---444444444---555555555555---


e---------------------------------------------------------
b---------------------------------------------------------
g---------------------------------------------------------
d---------------------------------------------------------
a---------------------------------------------------------
d--444444---555555----44444---222222-------55555--444444--


e------------------------------------------------------------------------
b------------------------------------------------------------------------
g------------------------------------------------------------------------
d-------99999999--1010101010--121212121212---444444444---555555555555----  
a-------99999999--1010101010--121212121212---444444444---555555555555----
d-------99999999--1010101010--121212121212---444444444---555555555555----


e---------------------------------------------------------|
b---------------------------------------------------------|
g---------------------------------------------------------|
d--444444---555555----44444---222222-------55555--444444--|
a--444444---555555----44444---222222-------55555--444444--|
d--444444---555555----44444---222222-------55555--444444--|


outro  play 1x
e---------------------------------------------------------------------------|
b---------------------------------------------------------------------------|
g---------------------------------------------------------------------------|
d---------------------99--10-10-9-9--99--12-12-10-10--99--10-10-9-9-----9---|    
a---------------------99-------------99--------------------99-----------9---|
d---------------------99-------------99--------------------99-----------9---|
            
Hard to play? Try these video lessons and learn fast. | Correct




comments powered by Disqus
↑ Back to top | Tablatures and chords are parodies/interpretations of the original songs. You may use it for private study, scholarship, research or language learning purposes only