>
 >
Polyamorous

Polyamorous Guitar Tabs

Breaking Benjamin - Polyamorous chords, tabs, tablatures, lyrics

Guitar lessons | Add/correct | Request | Top 50 tabs Artists:  A B C D E F G H I J K L M N O P Q R S T U V W X Y Z 0-9

Polyamorous Guitar Tabs – Breaking Benjamin

CD, Sheet music, Poster

Do you like Polyamorous? Share with your friends now
Bass TabsBass Tabs v2ChordsDrum TabsTabsTabs v2Tabs v3Tabs v4Tabs v5Tabs v6Tabs v7Tabs v8Tabs v9
Polyamorous – breaking benjamin

(distortion)

INTRO: 
(palm mute ********)	   
(With tremelo effect)  
     Bb5 C#5 Bb5  C#5	    	      Bb5     C#5      F#5          4x 
----------------------------||---------------------------------------|-||-
----------------------------||---------------------------------------|-||-
------3-------3-------------||-------x-3-3---x-6-6-------------------|-||-
------3---4---3---4---------||-------x-3-3---x-6-6---x-4-4---x-4-4---|-||-
----------4-------4---------||-------0-1-1---0-4-4---0-4-4---x-4-4---|-||-
----------------------------||-----------------------0-2-2---0-2-2---|-||-

VERSE:
                                (palm mute *********************************)
 Bb5	       Bb5         4x   Bb5	       F#5         Ab/C#5         F/Bb5        4x
----------------------------|-||--------------------------------------------------------|-||
----------------------------|-||--------------------------------------------------------|-||
----------------------------|-||-3-3----------------------------------------------------|-||
------------------------6-6-|-||-3-3--4-4-3-3--4-4--4-4-3-3--6-6--3-3-4-4--3-3--4-4-3-3-|-||
-8-8--9-9-8-8--8-6------9-9-|-||-1-1-----------4-4-----------4-4-----------1-1----------|-||
-6-6-----------6-6----------|-||---------------2-2-----------4-4-----------1-1----------|-||
                               1. The day has come to an end, the sun is over my head, 
                                  my polyamorour friend, got me in a mess of trouble again, so
CHORUS:	
          C#sus2 Eb5     Absus2 C#sus2 Eb5		          Absus2 C#sus2 Eb5	      
C#5 Eb5	C#5 Ebsus2 C#5 C#5    C#5  Ebsus2 C#5 C#5 Eb5 C#5	C#5    C#5 Ebsus2 C#5	     
--------------------- |--------------------- |---------------- |----------------------- |-||-
-------------6~8----- |-------------6~8----  |------------ x-x-|-------------6~8--------|-||-
-6---8---6---6~8-8~6--|-6---8---6---6~8-8~6--|-6---8---6---x-x-|-6---8---6---6~8-8~6----|-||-
-6---8---6---4~6-8~6--|-6---8---6---4~6-8~6--|-6---8---6---x-x-|-6---8---6---4~6-8~6----|-||-
-4---6---4---4~6-6~4--|-4---6---4---4~6-6~4--|-4---6---4---x-x-|-4---6---4---4~6-6~4----|-||-
----------------------|-----6----------------|-----------------|-----6------------------|-||-
1. Just when you think that you’re all right, I’m crawling out from the inside, 
   I never hurt anyone, I never listen at all.

VERSE:
                                (palm mute *********************************)
 Bb5	       Bb5         2x   Bb5	       F#5         Ab/C#5         F/Bb5        4x
----------------------------|-||--------------------------------------------------------|-||
----------------------------|-||--------------------------------------------------------|-||
----------------------------|-||-3-3----------------------------------------------------|-||
------------------------6-6-|-||-3-3--4-4-3-3--4-4--4-4-3-3--6-6--3-3-4-4--3-3--4-4-3-3-|-||
-8-8--9-9-8-8--8-6------9-9-|-||-1-1-----------4-4-----------4-4-----------1-1----------|-||
-6-6-----------6-6----------|-||---------------2-2-----------4-4-----------1-1----------|-||
                               2. They’ve come to get me again, the cloud is over my head, 
                                  my polyamorous friend, got me in a mess of trouble again, so
CHORUS:	
          C#sus2 Eb5     Absus2 C#sus2 Eb5		          Absus2 C#sus2 Eb5	      
C#5 Eb5	C#5 Ebsus2 C#5 C#5    C#5  Ebsus2 C#5 C#5 Eb5 C#5	C#5    C#5 Ebsus2 C#5	2x     
--------------------- |--------------------- |---------------- |----------------------- |-||-
-------------6~8----- |-------------6~8----  |------------ x-x-|-------------6~8--------|-||-
-6---8---6---6~8-8~6--|-6---8---6---6~8-8~6--|-6---8---6---x-x-|-6---8---6---6~8-8~6----|-||-
-6---8---6---4~6-8~6--|-6---8---6---4~6-8~6--|-6---8---6---x-x-|-6---8---6---4~6-8~6----|-||-
-4---6---4---4~6-6~4--|-4---6---4---4~6-6~4--|-4---6---4---x-x-|-4---6---4---4~6-6~4----|-||-
----------------------|-----6----------------|-----------------|-----6------------------|-||-
1. Just when you think that you’re all right, I’m crawling out from the inside, 
   I never hurt anyone, I never listen at all.
2. Just stay away from the white light, I say your worst side’s your best side, 
   I never hurt anyone, I never listen at all… 

INTERLUDE:				  (palm mute **************************)   
         Ab/C#5 Bb5 Ab/C#5 F/Bb5   F#5		   Ab/C#5 Bb5 Ab/C#5 F/Bb5   F#5
Bb5 C#5 Eb5  C#5  F#5    F#5  Ab/C#5 2x   Bb5 C#5 Eb5  C#5  F#5    F#5  Ab/C#5  2x   C#5    3x	
--------------------------------------|-||--------------------------------------|-||-------- |-||--
--------------------------------------|-||--------------------------------------|-||-------- |-||--
-3---6--8----- 6-3------------------- |-||-3---6--8----  6-3--------------------|-||-6-6-x-6-|-||-6
-3---6--8--6---6-3--4---6-4--3---6--4-|-||-3---6--8--6---6-3--4---6-4--3---6--4-|-||-6-6-x-6-|-||-6
-1---4--6--4---4-1--4---4-4--1---4--4-|-||-1---4--6--4---4-1--4---4-4--1---4--4-|-||-4-4-x-4-|-||-4
---------- 4--------2---4-2--1---4--2-|-||---------- 4--------2---4-2--1---4--2-|-||---------|-||--
(…all…)				1. well
how do you know? 			2. well how do you know…? 	3. well how 
                                           do you know?			4. well how do you know…?	

CHORUS:	
          C#sus2 Eb5     Absus2 C#sus2 Eb5		          Absus2 C#sus2 Eb5	      
C#5 Eb5	C#5 Ebsus2 C#5 C#5    C#5  Ebsus2 C#5 C#5 Eb5 C#5	C#5    C#5 Ebsus2 C#5	2x     
--------------------- |--------------------- |---------------- |----------------------- |-||-
-------------6~8----- |-------------6~8----  |------------ x-x-|-------------6~8--------|-||-
-6---8---6---6~8-8~6--|-6---8---6---6~8-8~6--|-6---8---6---x-x-|-6---8---6---6~8-8~6----|-||-
-6---8---6---4~6-8~6--|-6---8---6---4~6-8~6--|-6---8---6---x-x-|-6---8---6---4~6-8~6----|-||-
-4---6---4---4~6-6~4--|-4---6---4---4~6-6~4--|-4---6---4---x-x-|-4---6---4---4~6-6~4----|-||-
----------------------|-----6----------------|-----------------|-----6------------------|-||-
1. Just when you think that you’re all right, I’m crawling out from the inside, 
   I never hurt anyone, I never listen at all.
2. Just stay away from the white light, I say your worst side’s your best side, 
   I never hurt anyone, I never listen at all… 

OUTRO:
 Absus2	     C#5 Eb5 C#5 Ebsus2 C#5   	
C#5   C#5             C#sus2 Eb5 2x  Bb5	    Bb5	          Bb5	       Bb5	
---------------------------------|-||--------------------------------------------- || ||
-------------------------6~8-----|-||--------------------------------------------- || ||
-6--8--6--x-x--6--8--6---6~8-8~6-|-||--------------------------------------------- || ||
-6--8--6--x-x--6--8--6---4~6-8~6-|-||--------------------6-6---------------------- || ||
-4--6--4--x-x--4--6--4---4~6-6~4-|-||-8-8--9-9-8-8--8-6------9-9--8-8--9-9-8-8--8--|| ||
----6----------------------------|-||-6-6-----------6-6-----------6-6-----------6--|| ||

(…all)				let’s go!





Comments


Popular Breaking Benjamin tabs & chords
Sugarcoat Bass Tabs
Breath 1 Chords
Give Me A Sign 4 Chords
Give Me A Sign 8 Chords
Next To Nothing 1 Chords
Blow Me Away 3 Tabs
Breakdown 1 Tabs
Polyamorous Ver Tabs
So Cold 5 Tabs
Stay Alive Forever Tabs


Song lyrics



↑ Back to top | Tablatures and chords are parodies/interpretations of the original songs. You may use it for private study, scholarship, research or language learning purposes only
© 2014 AZChords.com Contact us | Privacy policy | DMCA | Add/correct tabs | Request tabs | Top 50 tabs