>
 >
Breath

Breath Guitar Tabs

Breaking Benjamin - Breath chords, tabs, tablatures, lyrics

Guitar lessons | Add/correct | Request | Top 50 tabs Artists:  A B C D E F G H I J K L M N O P Q R S T U V W X Y Z 0-9

Breath Guitar Tabs – Breaking Benjamin

CD, Sheet music, Poster

Do you like Breath? Share with your friends now
Bass TabsBass Tabs v2Bass Tabs v3Bass Tabs v4Bass Tabs v5ChordsChords v2Chords v3Chords v4Chords v5TabsTabs v2Tabs v3Tabs v4Tabs v5Ukulele
Breaking Benjamin               UPDATE 3/16/2010
Tuning Bb F Bb Eb G C

       : Final Chorus, Added Guitar 3
       : Outro, Added Guitar 3
       : Widened entire tab

Legend:
x-scratch                     h-hammer on                 \-slide down
/-slide up                    pm-palm mute


Intro Guitar 1 (Ben): 00:00 (Clean)
 C|---------------------------------------------------------------------------|
 G|---------------------------------------------------------------------------|
Eb|---------------------------------------------------------------------------|
Bb|--9--9--9--9--x-x--9---9---10------------9--9--9--9--x-x--9---9---10-------|
 F|--7--7--7--7--x-x--7---7---7-------------7--7--7--7--x-x--7---7---7--------|
Bb|--7--7--7--7--x-x--7---7---7-------------7--7--7--7--x-x--7---7---7--------|

Guitar 1: 00:05 (Distorted)
 C|---------------------------------------------------------------------------|
 G|---------------------------------------------------------------------------|
Eb|---------------------------------------------------------------------------|
Bb|--10------10--10--10---10--------------9-------9---9---9----9--------------|
 F|--10------10--10--10---10--------------10------10--10--10---10-------------|
Bb|--10------10--10--10---10--------------9-------9---9---9----9--------------|
                                                                              |
Guitar 2 (Aaron): 00:05 (Distorted)                                           |
 C|--15-----------------------------------15----------------------------------|
 G|-----17--15--17-h18--17-------------------17--15--17-/18--17---------------|
Eb|------------------------17-----------------------------------17------------|
Bb|---------------------------------------------------------------------------|
 F|---------------------------------------------------------------------------|
Bb|---------------------------------------------------------------------------|

Guitar 1: 00:10 (Distorted)
 C|---------------------------------------------------------------------------|
 G|---------------------------------------------------------------------------|
Eb|---------------------------------------------------------------------------|
Bb|--9--9--9--9--x-x--9---9---10------------9--9--9--9--x-x--9---9---10-------|
 F|--7--7--7--7--x-x--7---7---7-------------7--7--7--7--x-x--7---7---7--------|
Bb|--7--7--7--7--x-x--7---7---7-------------7--7--7--7--x-x--7---7---7--------|
                                                                              |
Guitar 2: 00:10 (Distorted)                                                   |
 C|--19---------------20--19----------------19---------------20--19-----------|
 G|--------20-----------------20------------------20-----------------20-------|
Eb|---------------------------------------------------------------------------|
Bb|---------------------------------------------------------------------------|
 F|---------------------------------------------------------------------------|
Bb|---------------------------------------------------------------------------|

Guitar 1: 00:16 (Distorted)
 C|---------------------------------------------------------------------------|
 G|---------------------------------------------------------------------------|
Eb|---------------------------------------------------------------------------|
Bb|--10------10--10--10---10--------------9-------9---9---9----9--------------|
 F|--10------10--10--10---10--------------10------10--10--10---10-------------|
Bb|--10------10--10--10---10--------------9-------9---9---9----9--------------|
                                                                              |
Guitar 2: 00:16 (Distorted)                                                   |
 C|------------------12-------------------10----------------------------------|
 G|--13---------------------------------------------------12---10-------------|
Eb|----------12-----------------------------------12--------------------------|
Bb|---------------------------------------------------------------------------|
 F|---------------------------------------------------------------------------|
Bb|---------------------------------------------------------------------------|

Verse 1 Guitar 1: 00:21
 C|---------------------------------------------------------------------------|
 G|---------------------------------------------------------------------------|
Eb|---------------------------------------------------------------------------|
Bb|---------------------------------------------------------------------------|
 F|--7--------------------------------------7---------------------------------|
Bb|--7--------------------------------------7---------------------------------|
                                                                              |
Verse 1 Guitar 2: 00:21 (clean)                                               |
 C|--------------------------0------------------------------------------------|
 G|-----------13-------------------------------------13------------13---------|
Eb|--------14-----14/16--14-----------------------14-----14/16--14------------|
Bb|-----14-------------------------------------14-----------------------------|
 F|--0--------------------------------------0---------------------------------|
Bb|---------------------------------------------------------------------------|

Guitar 1: 00:31
 C|---------------------------------------------------------------------------|
 G|---------------------------------------------------------------------------|
Eb|---------------------------------------------------------------------------|
Bb|--10-----------------------------------------------------------------------|
 F|--8--------------------------------------7---------------------------------|
Bb|-----------------------------------------7---------------------------------|
                                                                              |
Guitar 2: 00:31                                                               |
 C|----------------8------------------------------------------------0---------|
 G|---------8--10-----8--8-h10-----------------------13-----------------------|
Eb|-----10----------------------------------------14-----14/16--14------------|
Bb|--------------------------------------------14-----------------------------|
 F|-----------------------------------------0---------------------------------|
Bb|---------------------------------------------------------------------------|

Guitar 1: 00:42
 C|---------------------------------------------------------------------------|
 G|---------------------------------------------------------------------------|
Eb|---------------------------------------------------------------------------|
Bb|---------------------------------------------------------------------------|
 F|--7--------------------------------------7---------------------------------|
Bb|--7--------------------------------------7---------------------------------|
                                                                              |
Verse 1 Guitar 2: 00:42 (clean)                                               |
 C|--------------------------0------------------------------------------------|
 G|-----------13-------------------------------------13------------13---------|
Eb|--------14-----14/16--14-----------------------14-----14/16--14------------|
Bb|-----14-------------------------------------14-----------------------------|
 F|--0--------------------------------------0---------------------------------|
Bb|---------------------------------------------------------------------------|

Guitar 1: 00:52
 C|---------------------------------------------------------------------------|
 G|---------------------------------------------------------------------------|
Eb|---------------------------------------------------------------------------|
Bb|--10-----------------------------------------------------------------------|
 F|--8--------------------------------------7---------------------------------|
Bb|-----------------------------------------7---------------------------------|
                                                                              |
Guitar 2: 00:52                                                               |
 C|----------------8------------------------------------------------0---------|
 G|---------8--10-----8--8-h10-----------------------13------------13---------|
Eb|-----10----------------------------------------14-----14/16--14------------|
Bb|--------------------------------------------14-----------------------------|
 F|-----------------------------------------0---------------------------------|
Bb|---------------------------------------------------------------------------|

Pre Chorus: 01:02 (both guitars)
 C|---------------------------------------------------------------------------|
 G|--------------------5555---------------5555---------------5555-------------|
Eb|--------------------------------------------2--2-2-2--2-2------------------|
Bb|--xxx-3--3-3-3--3-3------3--3-3-3--3-3------2--2-2-2--2-2-------2----2-4---|
 F|--xxx-3--3-3-3--3-3------3--3-3-3--3-3------0--0-0-0--0-0-------0--2-0-2---|
Bb|--xxx-3--3-3-3--3-3------3--3-3-3--3-3-----------------------------2-------|

01:13
 C|---------------------------------------------------------------------------|
 G|---------------------------------------------------------------------------|
Eb|---------------------------------------------------------------------------|
Bb|--3--3-3-3-3-xxx-3--3-3-3-3-3-3--10--10-10-10-10-10-10--10-10-10-10--9-----|
 F|--3--3-3-3-3-xxx-3--3-3-3-3-3-3--10--10-10-10-10-10-10--10-10-10-10--10----|
Bb|--3--3-3-3-3-xxx-3--3-3-3-3-3-3--10--10-10-10-10-10-10--10-10-10-10--9-----|
                                    ^_________Acoustic Srumming________^
Guitar 2 during strumming: 01:19_
 C|---------------------------------------------------------------------------|
 G|---------------------------------88-88-88-88-88--5--5-\88-88-88-88-88-88---|
Eb|---------------------------------------------------------------------------|
Bb|---------------------------------------------------------------------------|
 F|---------------------------------------------------------------------------|
Bb|---------------------------------------------------------------------------|

Chorus Guitar 1: 01:24
 C|---------------------------------------------------------------------------|
 G|---------------------------------------------------------------------------|
Eb|---------------------------------------------------------------------------|
Bb|--xxx--7--7-7-7---7--7-7-7---7----2---3---3--3----3---3--3----5--5---5-----|
 F|--xxx--7--7-7-7---7--7-7-7---7----2---3---3--3----3---3--3----5--5---5-----|
Bb|--xxx--7--7-7-7---7--7-7-7---7----2---3---3--3----3---3--3----5--5---5-----|

Chorus Guitar 2: 01:24 (distorted)
 C|---------------------------------------------------------------------------|
 G|--10-10-10-10-10-10-10-10-10-10-88-10-10-10-10-10-10-10-10-10-10-1212-1212-|
Eb|---------------------------------------------------------------------------|
Bb|---------------------------------------------------------------------------|
 F|---------------------------------------------------------------------------|
Bb|---------------------------------------------------------------------------|

 C|---------------------------------------------------------------------------|
 G|--13131313131313131313-1212-131313131313131313131313-15151515151515151515--|
Eb|---------------------------------------------------------------------------|
Bb|---------------------------------------------------------------------------|
 F|---------------------------------------------------------------------------|
Bb|---------------------------------------------------------------------------|

Back to verse Guitar 1: 01:39
 C|---------------------------------------------------------------------------|
 G|---------------------------------------------------------------------------|
Eb|---------------------------------------------------------------------------|
Bb|---------------------------------------------------------------------------|
 F|--7------------------------------------------------------------------------|
Bb|--7------------------------------------------------------------------------|
                                                                              |
Verse 1 Guitar 2: 00:42 (clean)                                               |
 C|--------------------------0------------------------------------------------|
 G|-----------13--------------------------------------------------------------|
Eb|--------14-----14/16--14---------------------------------------------------|
Bb|-----14--------------------------------------------------------------------|
 F|--0------------------------------------------------------------------------|
Bb|---------------------------------------------------------------------------|

Verse 2 Guitar 1: 01:45
 C|---------------------------------------------------------------------------|
 G|---------------------------------------------------------------------------|
Eb|---------------------------------------------------------------------------|
Bb|---------------------------------------------------------------------------|
 F|--7--------------------------------------7---------------------------------|
Bb|--7--------------------------------------7---------------------------------|
                                                                              |
Verse 1 Guitar 2: 00:42 (clean)                                               |
 C|--------------------------0------------------------------------------------|
 G|-----------13-------------------------------------13------------13---------|
Eb|--------14-----14/16--14-----------------------14-----14/16--14------------|
Bb|-----14-------------------------------------14-----------------------------|
 F|--0--------------------------------------0---------------------------------|
Bb|---------------------------------------------------------------------------|

Guitar 1: 01:55
 C|---------------------------------------------------------------------------|
 G|---------------------------------------------------------------------------|
Eb|---------------------------------------------------------------------------|
Bb|--10-----------------------------------------------------------------------|
 F|--8--------------------------------------7---------------------------------|
Bb|-----------------------------------------7---------------------------------|
                                                                              |
Guitar 2: 00:52                                                               |
 C|----------------8------------------------------------------------0---------|
 G|---------8--10-----8--8-h10-----------------------13------------13---------|
Eb|-----10----------------------------------------14-----14/16--14------------|
Bb|--------------------------------------------14-----------------------------|
 F|-----------------------------------------0---------------------------------|
Bb|---------------------------------------------------------------------------|

Pre Chorus: 02:05
 C|---------------------------------------------------------------------------|
 G|--------------------5555---------------5555---------------5555-------------|
Eb|--------------------------------------------2--2-2-2--2-2------------------|
Bb|--xxx-3--3-3-3--3-3------3--3-3-3--3-3------2--2-2-2--2-2-------2----2-4---|
 F|--xxx-3--3-3-3--3-3------3--3-3-3--3-3------0--0-0-0--0-0-------0--2-0-2---|
Bb|--xxx-3--3-3-3--3-3------3--3-3-3--3-3-----------------------------2-------|

02:16
 C|---------------------------------------------------------------------------|
 G|---------------------------------------------------------------------------|
Eb|---------------------------------------------------------------------------|
Bb|--3--3-3-3-3-xxx-3--3-3-3-3-3-3--10--10-10-10-10-10-10--10-10-10-10--9-----|
 F|--3--3-3-3-3-xxx-3--3-3-3-3-3-3--10--10-10-10-10-10-10--10-10-10-10--10----|
Bb|--3--3-3-3-3-xxx-3--3-3-3-3-3-3--10--10-10-10-10-10-10--10-10-10-10--9-----|

Guitar 2 during strumming: 01:19_
 C|---------------------------------------------------------------------------|
 G|---------------------------------88-88-88-88-88--5--5-\88-88-88-88-88-88---|
Eb|---------------------------------------------------------------------------|
Bb|---------------------------------------------------------------------------|
 F|---------------------------------------------------------------------------|
Bb|---------------------------------------------------------------------------|

Chorus Guitar 2: 02:27
 C|---------------------------------------------------------------------------|
 G|---------------------------------------------------------------------------|
Eb|---------------------------------------------------------------------------|
Bb|--xxx--7--7-7-7---7--7-7-7---7----2---3---3--3----3---3--3----5--5---5-----|
 F|--xxx--7--7-7-7---7--7-7-7---7----2---3---3--3----3---3--3----5--5---5-----|
Bb|--xxx--7--7-7-7---7--7-7-7---7----2---3---3--3----3---3--3----5--5---5-----|

Chorus Guitar 2: 01:24 (distorted)
 C|---------------------------------------------------------------------------|
 G|--10-10-10-10-10-10-10-10-10-10-88-10-10-10-10-10-10-10-10-10-10-1212-1212-|
Eb|---------------------------------------------------------------------------|
Bb|---------------------------------------------------------------------------|
 F|---------------------------------------------------------------------------|
Bb|---------------------------------------------------------------------------|

 C|---------------------------------------------------------------------------|
 G|--13131313131313131313-1212-131313131313131313131313-1515151515151515-13h15|
Eb|---------------------------------------------------------------------------|
Bb|---------------------------------------------------------------------------|
 F|---------------------------------------------------------------------------|
Bb|---------------------------------------------------------------------------|


Bridge: Guitar 1: 02:42
 C|---------------------------------------------------------------------------|
 G|---------------------------------------------------------------------------|
Eb|---------------------------------------------------------------------------|
Bb|--7----x-x-x--7--7----x-x-x-x-x--3--x-x-x--3--3--x-x-x-x-x--5--x-x-x--5--5-|
 F|--7----x-x-x--7--7----x-x-x-x-x--3--x-x-x--3--3--x-x-x-x-x--5--x-x-x--5--5-|
Bb|--7----x-x-x--7--7----x-x-x-x-x--3--x-x-x--3--3--x-x-x-x-x--5--x-x-x--5--5-|
                                                                              |
Bridge: Guitar 2: 02:42                                                       |
 C|---------------------------------------------------------------------------|
 G|--10--10-101010------------------------------------------------------------|
Eb|----------------9--9-9-9--10-10-10-10-1010--9-99-9-7-77-77-9-99-9-10-1010-9|
Bb|---------------------------------------------------------------------------|
 F|---------------------------------------------------------------------------|
Bb|---------------------------------------------------------------------------|

Bridge: Guitar 1: 02:53
 C|---------------------------------------------------------------------------|
 G|---------------------------------------------------------------------------|
Eb|--------------------------------------------------------55555555-44444444--|
Bb|--x-x-x-x-x--3--3-3-3----7-7777--3-3333--5-5555---------55555555-55555555--|
 F|--x-x-x-x-x--3--3-3-3----7-7777--3-3333--5-5555---------33333333-22222222--|
Bb|--x-x-x-x-x--3--3-3-3----7-7777--3-3333--5-5555----------------------------|
                                                           pmpmpmpm pmpmpmpm  |
Bridge: Guitar 2                                                              |
 C|----------------------------------------------11-/12--10-------------------|
 G|---------------0-----------------------------------------12----------------|
Eb|---5-----5-----------7-----------------------------------------------------|
Bb|------7-----7-----7------7--7----7----7------------------------------------|
 F|---------------------------------------------------------------------------|
Bb|---------------------------------------------------------------------------|

Chorus Guitar 1: 03:04
 C|---------------------------------------------------------------------------|
 G|---------------------------------------------------------------------------|
Eb|---------------------------------------------------------------------------|
Bb|--10-10-10-10-10--10-10-9---7--777--77--7---2---3--333--33---5--555--555---|
 F|--10-10-10-10-10--10-10-10--7--777--77--7---2---3--333--33---5--555--555---|
Bb|--10-10-10-10-10--10-10-9---7--777--77--7---2---3--333--33---5--555--555---|

Chorus Guitar 2: 03:04
 C|---------------------------------------------------------------------------|
 G|--13---13-15-13-12--13---13-15-13-12--13---13-15-13-12--13---13-15-13-15---|
Eb|-----12----------------12----------------12----------------12--------------|
Bb|---------------------------------------------------------------------------|
 F|---------------------------------------------------------------------------|
Bb|---------------------------------------------------------------------------|
                                                                              |
Guitar 3: 03:04                                                               |
 C|---------------------------------------------------------------------------|
 G|---------------------------------------------------------------------------|
Eb|---------------------------------------------------------------------------|
Bb|--10---10-12-10--9--10---10-12-10--9--10---10-12-10--9--10---10-12-10-12---|
 F|-----10----------------10----------------10----------------10--------------|
Bb|---------------------------------------------------------------------------|

Guitar 2
 C|---------------------------------------------------------------------------|
 G|--17-15-17-18-17-15--17-15-17-18-17-15--13---13-15-13-12--13---13-12-------|
Eb|-------------------------------------------12----------------12------------|
Bb|---------------------------------------------------------------------------|
 F|---------------------------------------------------------------------------|
Bb|---------------------------------------------------------------------------|
                                                                              |
Guitar 3:                                                                     |
 C|---------------------------------------------------------------------------|
 G|---------------------------------------------------------------------------|
Eb|---------------------------------------------------------------------------|
Bb|--10---10-12-10--9---10---10-12-10--9---10---10-12-10--9--10---10--9-------|
 F|-----10-----------------10-----------------10----------------10------------|
Bb|---------------------------------------------------------------------------|

Outro Guitar 1: 03:24
 C|---------------------------------------------------------------------------|
 G|---------------------------------------------------------------------------|
Eb|---------------------------------------------------------------------------|
Bb|---------------------------------------------------------------------------|
 F|--7------------------------------------------------------------------------|
Bb|--7------------------------------------------------------------------------|
                                                                              |
Outro Guitar 2: (clean)                                                       |
 C|--------------------------0------------------------------------------------|
 G|-----------13--------------------------------------------------------------|
Eb|--------14-----14/16--14---------------------------------------------------|
Bb|-----14--------------------------------------------------------------------|
 F|--0------------------------------------------------------------------------|
Bb|---------------------------------------------------------------------------|
                                                                              |
Outro Guitar 3: (clean)                                                       |
 C|--------------------------0------------------------------------------------|
 G|-----------1-----0--------1------------------------------------------------|
Eb|--------2------2-----2-----------------------------------------------------|
Bb|-----2---------------------------------------------------------------------|
 F|--0------------------------------------------------------------------------|
Bb|---------------------------------------------------------------------------|

Finished!





Comments


Popular Breaking Benjamin tabs & chords
Hopeless Bass Tabs
Intro Bass Tabs
No Games 2 Bass Tabs
Sooner Or Later Bass Tabs
Follow 1 Chords
Water Drum Tabs
Wish I May Drum Tabs
Medicate 2 Tabs
Rain 3 Tabs
Water Tabs


Song lyrics



↑ Back to top | Tablatures and chords are parodies/interpretations of the original songs. You may use it for private study, scholarship, research or language learning purposes only
© 2014 AZChords.com Contact us | Privacy policy | DMCA | Add/correct tabs | Request tabs | Top 50 tabs