>
 >
Blow Me Away 2

Blow Me Away 2 Guitar Tabs

Breaking Benjamin - Blow Me Away 2 chords, tabs, tablatures, lyrics

Guitar lessons | Add/correct | Request | Top 50 tabs Artists:  A B C D E F G H I J K L M N O P Q R S T U V W X Y Z 0-9

Blow Me Away 2 Guitar Tabs – Breaking Benjamin

CD, Sheet music, Poster

Do you like Blow Me Away 2? Share with your friends now
Bass TabsBass Tabs v2TabsTabs v2Tabs v3Tabs v4
Tuning: CGCFAd
Gtr1: Plays and Sings*
Gtr2: Just Plays*

*Note: Whether thats what each guitar is doing or not,
I set it like that because its the easiest way for
two guitars to rehearse it if one of them has to sing
while playing.

Verse 1:

[TABS]
Gtr 1 & 2
d|-------------------------------------------|
A|-------------------------------------------|
F|---7p0-7---7p0-7--------7p0-7---7p0-7------|
C|-------------------------------------------|
G|-0-------0-------0-10-0-------0-------0-10-|
C|-0-------0-------0-10-0-------0-------0-10-|

|--------------------------------------------|
|--------------------------------------------|
|---7p0-7---7p0-7--------7p0-7---7p0-7-------|
|--------------------------------------------|
|-0-------0-------0-10-0-------0-------3-2-0-|
|-0-------0-------0-10-0-------0-------3-2-0-|
-------------------------------------------^(let ring)

Gtr2
These small parts are played while Gtr1 is singing
L|"... see them anyway..."|"...steady your hand..."|
d|------------------------|----------------17------|
A|------------------15----|------------15----------|
F|----------------14------|------------------------|
C|------------------------|------------------------|
G|------------------------|------------------------|
C|------------------------|------------------------|

[LYRICS]
They fall in line, one at a time
Ready to play (I can't see them anyway)
No time to lose, we've got to move
Steady your hand (I am losing sight again)

Prechorus 1:

[TABS]
Gtr1 & 2
|-----------------------------------------|
|-----------------------------------------|
|-----------------------------------------|
|-----------------------------------------|
|-8-8-8-8-8-8-8-8-10-10-10-10-10-10-10-10-|
|-8-8-8-8-8-8-8-8-10-10-10-10-10-10-10-10-|

Gtr1
|---------------------|
|-10--5-7---10--5-7---|
|---------7---------7-|
|---------------------|
|---------------------|
|---------------------|

Gtr2
|------------------------------|
|------------------------------|
|------------------------------|
|------------------------------|
|-0-0--0-0-0--0-0-0-0-0-0-7-10-|
|-0-0--0-0-0--0-0-0-0-0-0-7-10-|

Gtr1 & 2 again
|-----------------------------------------|
|-----------------------------------------|
|-----------------------------------------|
|-----------------------------------------|
|-8-8-8-8-8-8-8-8-10-10-10-10-10-10-10-10-|
|-8-8-8-8-8-8-8-8-10-10-10-10-10-10-10-10-|

[LYRICS](one part coordinates with Gtr1)
Fire your guns, its time to roll
Blow me away (I will stay, unless I may)

|-10--5-7----------10--5----7-----|
|------------7----------------7---|
|-----I-will-stay--un__less-I-may-|

After the fall, we'll shake it off
Show me the way

Chorus 1:

[TABS]
Gtr1
|-------------------|--------------------|
|-------------------|--------------------|
|-------------------|--------------------|
|-------------------|--------------------|
|-0---12--7-8--5----|-0---12--7-8--10----|
|-0---12--7-8--5----|-0---12--7-8--10----| x2

Gtr2
("^v"=bend up then down)
|--------------------------------|---------------------------------|
|--------------------------------|---------------------------------|
|-11--12-14-15--14-12-12--11-14\-|-11--12-14-15--14-12-12--11-11^v-|
|--------------------------------|---------------------------------|
|--------------------------------|---------------------------------|
|--------------------------------|---------------------------------| x2

[LYRICS](coordinates with Gtr2)
Only the strongest will survive
Lead me to Heaven when we die
I am a shadow on the wall
I'll be the one to save us all

|-11-12-14--15---14--12-12---11-14---|
|-On_ly-the-strongest---will-survive-|

|-11---12-14-15-14-12-12---11-11^v-|
|-Lead-me-to-Heaven---when-we die_-|

|-11--12-14-15-14-12-12-11--14---|
|-I---am-a--shadow---on-the-wall-|

|-11---12-14--15--14-12-12---11-11^v-|
|-Ill--be-the-one-to----save-us-all--|

Verse 2:

[TABS]
Gtr1 and 2
|--------------------------------------------|
|--------------------------------------------|
|---7p0-7---7p0-7--------7p0-7---7p0-7-------|
|--------------------------------------------|
|-0-------0-------0-10-0-------0-------3-2-0-|
|-0-------0-------0-10-0-------0-------3-2-0-|
-------------------------------------------^(let ring)

Gtr2
These small parts are played while Gtr1 is singing
L|"...tidal wave..."|"...your faith..."|
d|------17----------|---------17-----|
A|------------15----|----15----------|
F|------------------|----------------|
C|------------------|----------------|
G|------------------|----------------|
C|------------------|----------------|

[LYRICS]
Theres nothing left, so save your breath
Lying away (Caught inside this tidal wave)
Your covers blown, nowhere to go
Hold in your faith (Loaded, I will walk alone)

Prechorus 2:

[TABS]
Gtr1 & 2
|-----------------------------------------|
|-----------------------------------------|
|-----------------------------------------|
|-----------------------------------------|
|-8-8-8-8-8-8-8-8-10-10-10-10-10-10-10-10-|
|-8-8-8-8-8-8-8-8-10-10-10-10-10-10-10-10-|

Gtr1
|---------------------|
|-10--5-7---10--5-7---|
|---------7---------7-|
|---------------------|
|---------------------|
|---------------------|

Gtr2
|------------------------------|
|------------------------------|
|------------------------------|
|------------------------------|
|-0-0--0-0-0--0-0-0-0-0-0-7-10-|
|-0-0--0-0-0--0-0-0-0-0-0-7-10-|

Gtr1 & 2 again
|-----------------------------------------|
|-----------------------------------------|
|-----------------------------------------|
|-----------------------------------------|
|-8-8-8-8-8-8-8-8-10-10-10-10-------------|
|-8-8-8-8-8-8-8-8-10-10-10-10-------------|
------------------*only 4 times this time!

[LYRICS](one part coordinates with Gtr1)
Fire your guns, its time to roll
Blow me away (I will stay, unless I may)

|-10--5-7----------10--5----7-----|
|------------7----------------7---|
|-----I-will-stay--un__less-I-may-|

After the fall, we'll shake it off
Show me the way

Chorus 2:
Same as Chorus 1

Bridge:

[TABS AND LYRICS]
Gtr1 & 2
|-----------------------------------------|
|-----------------------------------------|
|-----------------------------------------|
|-----------------------------------------|
|-8-8-8-8-8-8-8-8-10-10-10-10-10-10-10-10-|
|-8-8-8-8-8-8-8-8-10-10-10-10-10-10-10-10-|

Wanted it back, COME FIGHT ME NOW!!!

Gtr2
|---------------------------------|
|---------------------------------|
|---------8-8-7-7-----------------|
|-----7-7---------7-7-----5-5-----|
|-5-5-----------------8-8-----7-7-|
|---------------------------------|
--^^^^^^^^^^^^^^^^^^^^^^^^^^^^^^^PM all

Gtr1 & 2
|---------------------------------|
|---------------------------------|
|---------8-8-7-7-----------------|
|-----7-7---------7-7-----5-5-----|
|-5-5-----------------8-8-----7-7-|
|---------------------------------|

RRRRRRRRRRRRRRRRRRRRRRR COME ON!!!

Gtr1 & 2
|---------------------------------|
|---------------------------------|
|---------------------------------|
|---------------------------------|
|---------6-6-5-5---------6-6-5-5-|
|-0-0-7-7-------------8-8---------|

|-------------------------------------------|
|-------------------------------------------|
|-------------------------------------------|
|-------------------------------------------|
|---------6-6-5-5---------6-6-5-5-----------|
|-0-0-7-7-------------8-8---------0-0-8\--0-|

|---------------------------------|
|---------------------------------|
|---------------------------------|
|---------------------------------|
|---------6-6-5-5---------6-6-5-5-|
|-0-0-7-7-------------8-8---------|

|------------------------------------------|
|------------------------------------------|
|------------------------------------------|
|------------------------------------------|
|---------6-6-5-5---------6-6-5-5----------|
|-0-0-7-7-------------8-8---------0-0-8--0-|

DDIIIIIIEEEEEEEEEE!!!!!

|---------------------------|---------------------------|
|---------------------------|---------------------------|
|---------------------------|---------------------------|
|---------------------------|---------------------8-----|
|-0-0--0--0-0-0-1--0--1-0-0-|-0-0--0--0-0-0-1--0--8-----|
|-0-0--0--0-0-0-1--0--1-0-0-|-0-0--0--0-0-0-1--0--6-----|
--^^^^^^^^^^^^^^^^^^^^^^^^^^^^^^^^^^^^^^^^^^^^^^PM

|---------------------------|---------------------------|
|---------------------------|---------------------------|
|---------------------------|---------------------------|
|---------------------------|---------------------8-----|
|-0-0--0--0-0-0-1--0--1-0-0-|-0-0--0--0-0-0-1--0--8-----|
|-0-0--0--0-0-0-1--0--1-0-0-|-0-0--0--0-0-0-1--0--6-----|
--^^^^^^^^^^^^^^^^^^^^^^^^^^^^^^^^^^^^^^^^^^^^^^PM

|---------------------------|----------------------------|
|---------------------------|----------------------------|
|---------------------------|----------------------------|
|---------------------------|----------------------------|
|-0-0--0--0-0-0-1--0--1-0-0-|-0-0--0--0-0-0-1--0---------|
|-0-0--0--0-0-0-1--0--1-0-0-|-0-0--0--0-0-0-1--0---3-----|
--^^^^^^^^^^^^^^^^^^^^^^^^^^^^^^^^^^^^^^^^^^^^^^PM +(harm.)

Chorus 3:
Same as Chorus 1 & 2

Outro:

[TABS AND LYRICS]
Gtr1 & 2
|---------------------------|---------------------------|
|---------------------------|---------------------------|
|---------------------------|---------------------------|
|---------------------------|---------------------8-----|
|-0-0--0--0-0-0-1--0--1-0-0-|-0-0--0--0-0-0-1--0--8-----|
|-0-0--0--0-0-0-1--0--1-0-0-|-0-0--0--0-0-0-1--0--6-----|

"... the one to SAVE US ALL "

|---------------------------|---------------------------|
|---------------------------|---------------------------|
|---------------------------|---------------------------|
|---------------------------|---------------------------|
|-0-0--0--0-0-0-1--0--1-0-0-|-0-0--0--0-0-0-1--0--1--0--|
|-0-0--0--0-0-0-1--0--1-0-0-|-0-0--0--0-0-0-1--0--1--0--|
--------------------------------------------------^PM^

"SAVE US ALL!!!"

/ Slide up
\ Slide down
h Hammer on
p Pull off
~ Vibrato
+ Harmonic
x Mute note





Comments


Popular Breaking Benjamin tabs & chords
Blow Me Away 1 Bass Tabs
Diary Of Jane 3 Bass Tabs
Had Enough 5 Bass Tabs
Skin Bass Tabs
Dear Agony 3 Chords
Medicate 1 Tabs
Skin 4 Tabs
Who Wants To Live Forever Tabs
Wish I May Tabs
You Intro Tabs


Song lyrics



↑ Back to top | Tablatures and chords are parodies/interpretations of the original songs. You may use it for private study, scholarship, research or language learning purposes only
© 2014 AZChords.com Contact us | Privacy policy | DMCA | Add/correct tabs | Request tabs | Top 50 tabs