» » »

Blow Me Away Bass tabs (ver.2)

Artists:  A B C D E F G H I J K L M N O P Q R S T U V W X Y Z # 

Blow Me Away Bass tabs (ver.2)

Breaking Benjamin
Rating:
0/5 (0 votes)

Hard to play? Try these video lessons and learn fast.
                                              Blow Me Away                             Breaking Benjamin


AIM-ZeroSkater7286



G||-------|-------|-------|-------|-------|-------|-------|-------|
D||-------|-------|-------|-------|-------|-------|-------|-------|
A||-------|-------|-------|-------|-------|-------|-------|-------|
C||-------|-------|-------|-------|-------|-------|-------|-------|


  E  E  E  E  E  E  E   E     E  E  E  E  E  E  E   E   
---------------------------|---------------------------|
---------------------------|---------------------------|
---------------------------|---------------------------|
--0--------0--------0--10--|--0--------0--------7--10--|


  E  E  E  E  E  E  E   E     E  E  E  E  E  E  E  E   
---------------------------|--------------------------|
---------------------------|--------------------------|
---------------------------|--------------------------|
--0--------0--------0--10--|--0--------0--------3--2--|


  S S S S S S S S S S S S S S S S    S S S S S S S S S S S S S S S S  
----------------------------------|----------------------------------|
----------------------------------|----------------------------------|
----------------------------------|----------------------------------|
--0-0-0-0-0-0-0-0-0-0-0-0-0-0-0-0-|--3-3-3-3-3-3-3-3-3-3-5-5-5-5-5-5-|


  S S S S S S S S S S S S S S S S    S S S S S S S S S S S S S S S S  
----------------------------------|----------------------------------|
----------------------------------|----------------------------------|
----------------------------------|--1-1-1-1-1-1-1-1-1---------------|
--0-0-0-0-0-0-0-0-0-0-0-0-0-0-0-0-|--------------------5-5-5-5-5-5-5-|


  S S S S S S S S S S S S S S S S    S S S S S S S S S S S S S S S S  
----------------------------------|----------------------------------|
----------------------------------|----------------------------------|
----------------------------------|----------------------------------|
--0-0-0-0-0-0-0-0-0-0-0-0-0-0-0-0-|--3-3-3-3-3-3-3-3-3-3-5-5-5-5-5-5-|


  S S S S S S S S S S S S S S S S    S S S S S S S S S S S S S S S S  
----------------------------------|----------------------------------|
----------------------------------|----------------------------------|
----------------------------------|--1-1-1-1-1-1-1-1-1---------------|
--0-0-0-0-0-0-0-0-0-0-0-0-0-0-0-0-|--------------------3-3-3-3-3-3-3-|


  E  E  E  E  E  E  E  E      E   E   E   S  S E   E  E  E   
--------------------------|---------------------------------|
--------------------------|---------------------------------|
--------------------6-----|--------------------6------6--8--|
--8--8--8--8--8--8-----5--|--10--10--10--10-10----10--------|


  S E  E.  S S S S E  Q       S S S S S S S S S E  S E   E   
---------------------------|--------------------------------|
---------------------------|--------------------------------|
---------------------------|--------------------------------|
--0-0------0-0---0---------|--0-0---0---0-0----------7--10--|


  E  E  E  E  E  E  E  E      E   E  E   S  S S S E  E   E   
--------------------------|---------------------------------|
--------------------------|---------------------------------|
--------6-----------6--8--|----------8--------6-8-6--5------|
--8--8-----8--8--8--------|--10--10-----10-10-----------10--|


  Q    E   Q    E  Q       Q    E  H        E      Q    E   Q    E  Q     
------------------------|-----------------------|------------------------|
------------------------|-----------------------|------------------------|
------------------------|-----------------------|------------------------|
--0----L--12----L--7----|--8----L--5--------L/--|--0----L--12----L--7----|


  Q    E   Q    E   S S  E     Q    E   Q    E  Q       Q    E  H        E    
----------------------------|------------------------|-----------------------|
----------------------------|------------------------|-----------------------|
----------------------------|------------------------|-----------------------|
--8----L--10----L--10-0-10--|--0----L--12----L--7----|--8----L--5--------L/--|


  Q    E   Q    E  Q       Q    E   Q    E   S S  E   
------------------------|----------------------------|
------------------------|----------------------------|
------------------------|----------------------------|
--0----L--12----L--7----|--8----L--10----L--10-0-10--|


  E  E  E  E  E  E  E   E     E  E  E  E  E  E  E  E   
---------------------------|--------------------------|
---------------------------|--------------------------|
---------------------------|--------------------------|
--0--------0--------0--10--|--0--------0--------3--2--|


  S S S S S S S S S S S S S S S S    S S S S S S S S S S S S S S S S  
----------------------------------|----------------------------------|
----------------------------------|----------------------------------|
----------------------------------|----------------------------------|
--0-0-0-0-0-0-0-0-0-0-0-0-0-0-0-0-|--3-3-3-3-3-3-3-3-3-3-5-5-5-5-5-5-|


  S S S S S S S S S S S S S S S S    S S S S S S S S S S S S S S S S  
----------------------------------|----------------------------------|
----------------------------------|----------------------------------|
----------------------------------|--1-1-1-1-1-1-1-1-1---------------|
--0-0-0-0-0-0-0-0-0-0-0-0-0-0-0-0-|--------------------5-5-5-5-5-5-5-|


  S S S S S S S S S S S S S S S S    S S S S S S S S S S S S S S S S  
----------------------------------|----------------------------------|
----------------------------------|----------------------------------|
----------------------------------|----------------------------------|
--0-0-0-0-0-0-0-0-0-0-0-0-0-0-0-0-|--3-3-3-3-3-3-3-3-3-3-5-5-5-5-5-5-|


  S S S S S S S S S S S S S S S S    S S S S S S S S S S S S S S S S  
----------------------------------|----------------------------------|
----------------------------------|----------------------------------|
----------------------------------|--1-1-1-1-1-1-1-1-1---------------|
--0-0-0-0-0-0-0-0-0-0-0-0-0-0-0-0-|--------------------3-3-3-3-3-3-3-|


  E  E  E  E  E  E  E  E      E   E  E   E   E  S S E  S  S  
--------------------------|---------------------------------|
--------------------------|---------------------------------|
--------6-----------6--8--|----------8----------6-8-6--5----|
--8--8-----8--8--8--------|--10--10-----10--10-----------10-|


  S E  E.  S S S S E  Q       S S S S S S S S S E  S E   E   
---------------------------|--------------------------------|
---------------------------|--------------------------------|
---------------------------|--------------------------------|
--0-0------0-0---0---------|--0-0---0---0-0----------7--10--|


  E  E  E  E  E  E  E   E      E   E   E   E  H         
---------------------------|---------------------------|
---------------------------|---------------------------|
--------6-----8--6--5------|---------------------------|
--8--8-----8-----------10--|--10--10--10--10-----------|


  Q    E   Q    E  Q       Q    E  H        E      Q    E   Q    E  Q     
------------------------|-----------------------|------------------------|
------------------------|-----------------------|------------------------|
------------------------|-----------------------|------------------------|
--0----L--12----L--7----|--8----L--5--------L/--|--0----L--12----L--7----|


  Q    E   Q    E   S S  E     Q    E   Q    E  Q       Q    E  H        E    
----------------------------|------------------------|-----------------------|
----------------------------|------------------------|-----------------------|
----------------------------|------------------------|-----------------------|
--8----L--10----L--10-0-10--|--0----L--12----L--7----|--8----L--5--------L/--|


  Q    E   Q    E  Q       Q    E   Q    E   S S  E   
------------------------|----------------------------|
------------------------|----------------------------|
------------------------|----------------------------|
--0----L--12----L--7----|--8----L--10----L--10-0-10--|


  E  E  E  E  E  E  E  E      E   E   E  S S E  E   E  E               
--------------------------|-------------------------------|-----|-----|
--------------------------|-------------------------------|-----|-----|
--------6-----8--6--5-----|--------------6-8-6--5------6--|-----|-----|
--8--8-----8-----------8--|--10--10--10------------10-----|-----|-----|


  S S S S S S S S E  S S S S S S    S S S S S S S S E  E   Q     
---------------------------------|------------------------------|
---------------------------------|------------------------------|
----------4-4-3-3--------4-4-3-3-|----------4-4-3-3-------------|
--0-0-7-7------------8-8---------|--7-7-0-0------------8s--1----|


  S S S S S S S S E  S S S S S S    S S S S S S S S E  E  S E  S  
---------------------------------|-------------------------------|
---------------------------------|-------------------------------|
----------4-4-3-3--------4-4-3-3-|----------4-4-3-3--------------|
--0-0-7-7------------8-8---------|--7-7-0-0------------8----1----|


  S E  E  S S S S S S S S S S S    S E  E  S S S S S S S Q     
--------------------------------|-----------------------------|
--------------------------------|-----------------------------|
--------------------------------|------------------------4----|
--0-0--0--0-0-0-0-0-0-0-0-0-0-0-|--0-0--0--0-0-0-0-0-0-0------|


  S E  E  S S S S S S S S S S S    S E  E  S S S S S E  Q     
--------------------------------|----------------------------|
--------------------------------|----------------------------|
--------------------------------|-----------------------4----|
--0-0--0--0-0-0-0-0-0-0-0-0-0-0-|--0-0--0--0-0-0-0-0-0-------|


  S E  E  S S S S S S S S S S S    S E  E  S S S S S S Q    S        
--------------------------------|-----------------------------|-----|
--------------------------------|-----------------------------|-----|
--------------------------------|-----------------------------|-----|
--0-0--0--0-0-0-0-0-0-0-0-0-0-0-|--0-0--0--0-0-0-0-0-0--------|-----|


  Q    E   Q    E  Q       Q    E  H        E      Q    E   Q    E  Q     
------------------------|-----------------------|------------------------|
------------------------|-----------------------|------------------------|
------------------------|-----------------------|------------------------|
--0----L--12----L--7----|--8----L--5--------L/--|--0----L--12----L--7----|


  Q    E   Q    E   S S  E     Q    E   Q    E  Q       Q    E  H        E    
----------------------------|------------------------|-----------------------|
----------------------------|------------------------|-----------------------|
----------------------------|------------------------|-----------------------|
--8----L--10----L--10-0-10--|--0----L--12----L--7----|--8----L--5--------L/--|


  Q    E   Q    E  Q       Q    E   Q    E   S S  E   
------------------------|----------------------------|
------------------------|----------------------------|
------------------------|----------------------------|
--0----L--12----L--7----|--8----L--10----L--10-0-10--|


  S E  E  S S S S S S S S S S S    S E  E  S S S S S S S Q     
--------------------------------|-----------------------------|
--------------------------------|-----------------------------|
--------------------------------|------------------------4----|
--0-0--0--0-1-0-0-0-0-0-1-0-0-0-|--0-0--0--0-1-0-0-0-0-0------|


  S E  E  S S S S S S S S S S S    S E  E  S S S S S S Q    S   
--------------------------------|-----------------------------||
--------------------------------|-----------------------------||
--------------------------------|-----------------------------||
--0-0--0--0-1-0-0-0-0-0-1-0-0-0-|--0-0--0--0-1-0-0-0-0--------||




Duration Legend
---------------
W - whole
H - half
Q - quarter
E - 8th
S - 16th
T - 32nd
X - 64th
. - note dotted
|-n-|  - n-tuplets


Tablature Legend
----------------
L - tied note
x - dead note
g - grace note
(n) - ghost note
> - accentuded note
NH - natural harmonic
AH - artificial harmonic
TH - tapped harmonic
SH - semi harmonic
PH - pitch harmonic
h - hammer on
p - pull off
b - bend
br - bendRelease
pb - preBend
pbr - preBendRelease
brb - bendReleaseBend
\n/ - tremolo bar dip
\n - tremolo bar dive
-/n - tremolo bar Release up
/n\ - tremolo bar inverted dip
/n - tremolo bar return
-\n - tremolo bar Release down
S - shift slide
s - legato slide
/ -  slide into from below or out of upwards
\ -  slide into from above or out of downwards
~ - vibrato
W - wide vibrato
tr - trill
TP - tremolo picking
T - tapping
S - slap
P - pop
< - fade in
^ - brush up
v - brush down
            
Hard to play? Try these video lessons and learn fast. | Correct




comments powered by Disqus
↑ Back to top | Tablatures and chords are parodies/interpretations of the original songs. You may use it for private study, scholarship, research or language learning purposes only