>
 >
Blow Me Away 1

Blow Me Away 1 Guitar Tabs

Breaking Benjamin - Blow Me Away 1 chords, tabs, tablatures, lyrics

Guitar lessons | Add/correct | Request | Top 50 tabs Artists:  A B C D E F G H I J K L M N O P Q R S T U V W X Y Z 0-9

Blow Me Away 1 Guitar Tabs – Breaking Benjamin

CD, Sheet music, Poster

Do you like Blow Me Away 1? Share with your friends now
Bass TabsBass Tabs v2TabsTabs v2Tabs v3Tabs v4
Band: Breaking Benjamin (Live: There is a difference)
Tuning: Drop C
get it.(the verses)

Intro

Guitar 1
|--------------------------------------------------------------|
|--------------------------------------------------------------|
|--------------------------------------------------------------|
|-0-------0------0-10-0--------0-------0-7-10-0--------0-------|
|-0-------0------0-10-0--------0-------0-7-10-0--------0-------|
|-0-------0------0-10-0--------0-------0-7-10-0--------0-------|

Guitar 2
|--------------------------------------------------------------|
|--------------------------------------------------------------|
|---7p0-7---7p0-7--------7p0-7---7p0-7-----------7p0-7---7p0-7-|
|--------------------------------------------------------------|
|--------------------------------------------------------------|
|--------------------------------------------------------------|

Guitar 1
|-------------------------------|
|-------------------------------|
|-------------------------------|
|-0-10-0-------0-------0-3-2-0--|
|-0-10-0-------0-------0-3-2-0--|
|-0-10-0-------0-------0-3-2-0--|

Guitar 2
|-------------------------------|
|-------------------------------|
|--------7p0-7---7p0-7----------|
|----------------------0-3-2----|
|----------------------0-3-2----|
|----------------------0-3-2----|

Guitar 2
|------|------------------------|
|------|------------------------|
|-9brb-|7~-5~-5h7p5h7~-5h7h9brb-|
|------|------------------------| x2
|------|------------------------|
|------|------------------------|

(this is the recording version for the verses. as good as i could get.)
|---------------------------|
|-----5*--------------------|
|---5*----------------------|
|-5*------------------------|
|---------------------------|
|---------------------------|

Guitar1 let ring
|------------------------------|
|------------------------------|
|------------------------------|
|---------3--------------------|
|---------3--------------------|
|---------3--------------------|
Verse

Guitar 2
|------------------------------|
|------------------------------|
|-7~-5~-5h7p5h7~ 5h7h9brb------|
|------------------------------| x2
|------------------------------|
|------------------------------|


Pre-Chorus
Guitar 1
|-------------------------------|
|-------------------------------|
|-------------------------------|
|-8-8-8-8-8-8-10-10-10-10-10-10-|
|-8-8-8-8-8-8-10-10-10-10-10-10-|
|-8-8-8-8-8-8-10-10-10-10-10-10-|

guitar2
|-------------------------|
|-------------------------|
|-------------------------|
|-1-1-1-1-1-1-3-3-3-3-3-3-|
|-1-1-1-1-1-1-3-3-3-3-3-3-|
|-1-1-1-1-1-1-3-3-3-3-3-3-|

Guitar 2 pm---------------|
|-------------------------|
|-------------------------|
|-------------------------|
|-------------------7-10--|
|-00-0-000-00-0-00--7-10--|
|-00-0-000-00-0-00--7-10--|

Guitar1
|--------------------|
|-10-5-7---10-5-7----|
|--------5--------5--|
|--------------------|
|--------------------|
|--------------------|

Guitar1
|-------------------------------|
|-------------------------------|
|-------------------------------|
|-8-8-8-8-8-8-10-10-10-10-10-10-|
|-8-8-8-8-8-8-10-10-10-10-10-10-|
|-8-8-8-8-8-8-10-10-10-10-10-10-|

Guitar2
|-------------------------|
|-------------------------|
|-------------------------|
|-1-1-1-1-1-1-3-3-3-3-----|
|-1-1-1-1-1-1-3-3-3-3-----|
|-1-1-1-1-1-1-3-3-3-3-----|

Chorus
Guitar1
|----------------------------|
|----------------------------|
|---7--------------7---------|
|-0-7-7-8-5\(12)-0-7-7-8-10/-| x2
|-0-5-7-8-5\(12)-0-5-7-8-10/-|
|-0---7-8-5\(12)-0---7-8-10/-|

Guitar2 (play the 14~ instead of the 4/7 for the recording version)
|--------------------------------------------|
|--------------------------------------------|
|------------------(14~)--------------------| x2
|-0-4-5-7-8b-7-5-4-4/7-0-4-5-7-8b-7-5-4-4brb-|
|-0--------------------0---------------------|
|-0--------------------0---------------------|


verse
Guitar 2
|------------------------------|
|------------------------------|
|-7~-5~-5h7p5h7~ 5h7h9brb------|
|------------------------------| x2
|------------------------------|
|------------------------------|

Pre-Chorus
Guitar 1
|-------------------------------|
|-------------------------------|
|-------------------------------|
|-8-8-8-8-8-8-10-10-10-10-10-10-|
|-8-8-8-8-8-8-10-10-10-10-10-10-|
|-8-8-8-8-8-8-10-10-10-10-10-10-|

guitar2
|-------------------------|
|-------------------------|
|-------------------------|
|-1-1-1-1-1-1-3-3-3-3-3-3-|
|-1-1-1-1-1-1-3-3-3-3-3-3-|
|-1-1-1-1-1-1-3-3-3-3-3-3-|

Guitar 2 pm---------------|
|-------------------------|
|-------------------------|
|-------------------------|
|-------------------7-10--|
|-00-0-000-00-0-00--7-10--|
|-00-0-000-00-0-00--7-10--|

Guitar1
|--------------------|
|-10-5-7---10-5-7----|
|--------5--------5--|
|--------------------|
|--------------------|
|--------------------|

Guitar1
|-------------------------------|
|-------------------------------|
|-------------------------------|
|-8-8-8-8-8-8-10-10-10-10-10-10-|
|-8-8-8-8-8-8-10-10-10-10-10-10-|
|-8-8-8-8-8-8-10-10-10-10-10-10-|

Guitar2
|-------------------------|
|-------------------------|
|-------------------------|
|-1-1-1-1-1-1-3-3-3-3-----|
|-1-1-1-1-1-1-3-3-3-3-----|
|-1-1-1-1-1-1-3-3-3-3-----|

Chorus
Guitar1
|----------------------------|
|----------------------------|
|---7--------------7---------|
|-0-7-7-8-5\(12)-0-7-7-8-10/-| x2
|-0-5-7-8-5\(12)-0-5-7-8-10/-|
|-0---7-8-5\(12)-0---7-8-10/-|

Guitar2
|--------------------------------------------|
|--------------------------------------------|
|--------------------------------------------| x2
|-0-4-5-7-8b-7-5-4-4/7-0-4-5-7-8b-7-5-4-4brb-|
|-0--------------------0---------------------|
|-0--------------------0---------------------|

Bridge
Guitar1 Roll off palm mute
|-----------------------------------|
|-----------------------------------|
|-----9977-------------8877---------|
|---77----77--55-----77----77--55---|
|-55--------88--77-55--------88--77-|
|-----------------------------------|

Guitars1&2
|----------------------------------|
|----------------------------------|
|----------------------------------|
|-0------------------------8/--1---|
|-0---6655---6655----6655-8/--1---|
|-0077-----88----0077----008/--1---|

Guitars1&2
|---------------------------------|
|---------------------------------|
|---------------------------------|
|--------------------------8-1\--|
|-----6655---6655----6655--8-1\--|
|-0077-----88----0077----008-1\--|

guitars1&2
|----------------------------------|
|----------------------------------|
|----------------------------------|
|------------------------------8---|
|------------------------------6---|
|-00-0-0001-0-100-00-0-0001-0--6---|

guitars1&2
|----------------------------------|
|----------------------------------|
|----------------------------------|
|------------------------------8---|
|-00-0-0001-0-100-00-0-0001-0--6---|
|-00-0-0001-0-100-00-0-0001-0--6---|

guitars1&2
|-------------------------------17---|
|--------------------------------x---|
|-------------------------------14---|
|------------------------------------|
|-00-0-0001-0-100-00-0-0001-0--------|
|-00-0-0001-0-100-00-0-0001-0-------|

Chorus

guitars1&2
|----------------------------------|
|----------------------------------|
|----------------------------------|
|------------------------------8---|
|-00-0-0001-0-100-00-0-0001-0--6---|
|-00-0-0001-0-100-00-0-0001-0--6---|

guitars1&2
|----------------------------------|
|----------------------------------|
|----------------------------------|
|----------------------------------|
|-00-0-0001-0-100-00-0-0001-0--0---|
|-00-0-0001-0-100-00-0-0001-0--0---|

this took forever!!!





Comments


Popular Breaking Benjamin tabs & chords
Here We Are 1 Chords
Rain 2 Chords
I Will Not Bow Drum Tabs
Wish I May Drum Tabs
Blow Me Away Tabs
Fade Away 1 Tabs
Intro Tabs
Natural Life Tabs
Topless 1 Tabs
Follow Ukulele


Song lyrics



↑ Back to top | Tablatures and chords are parodies/interpretations of the original songs. You may use it for private study, scholarship, research or language learning purposes only
© 2014 AZChords.com Contact us | Privacy policy | DMCA | Add/correct tabs | Request tabs | Top 50 tabs