>
 >
Feelin' Satisfied

Feelin' Satisfied Bass Tabs

Boston - Feelin' Satisfied chords, tabs, tablatures, lyrics

Guitar lessons | Add/correct | Request | Top 50 tabs Artists:  A B C D E F G H I J K L M N O P Q R S T U V W X Y Z 0-9

Feelin' Satisfied Bass Tabs – Boston

CD, Sheet music, Poster

Do you like Feelin' Satisfied? Share with your friends now
Bass TabsChordsTabs
Boston - Feelin Satisfied
Standard Bass tuning


Intro (at 0:09, joins guitar part)
G|--------|-----------------|---------------4-|-----------------|-----------------|
D|--------|-----------------|-----------2-4---|-----------------|-----------------|
A|----0-1-|-2-2-2-2-2-2-2-2-|-2-2-2-2-2-------|-2-2-2-2-2-2-2-2-|-0-0-4-4-5-5-7-7-|
E|--------|-----------------|-----------------|-----------------|-----------------|

G|-----------------|
D|-7-7-7-7-7-7-7---|
A|-----------------|
E|-----------------|

Verse Part 1 - triplets are shown as ***

   E         ****                         A                            ***
G|--------------------|-----------------|-----------------|--------------------|
D|--------------------|-----------------|---------------7-|-(7)--7-7-7-7-------|
A|-7--7-7----7p5------|-7-7-4-4-5-5-7---|-----4-4-5-7-7---|-------------7------|
E|--------------5-7---|---------------4-|-5-5-------------|--------------5-7-7-|

   E         ****                      A                 B
G|-----------------|-----------------|-----------------|------------------|
D|-----------------|-----------------|-----------------|------------------|
A|-7---7---7-9p7---|-7-7-4-4-5-4-----|-----4-4-5-5-7---|------------------|
E|--------------7--|-------------7-4-|-5-5-----------5-|-7-7-5-5-4-4-2----|

Verse Part 2
   C#m               G#                A                 D
G|-----------------|-----------------|-----------------|-----------------|
D|-----------------|----------6--4---|-----------------|-------7---------|
A|-4---4---4-5-7---|---------6-----7-|-----4-4-5-5-7---|-5---7---0---4-5-|
E|---------------4-|-(4)-------------|-5-5-------------|-----------------|

   E                  A                 E                A
G|-----------------|------------------|----------------|----------------|
D|-----------------|------------------|----------------|----------------|
A|-7---------------|-------4-4-5-5-6--|----------2-----|-0-0------------|
E|-----3-4-4-4-4-0-|-5---5------------|-0--0-3-4---4-3-|-----4-4-3-3-2--|

   E                 C#m               B
G|-----------------|-----------------|-----------------|
D|-----------2-----|-----------------|-----------------|
A|---------2---2-4-|-(4)-4-4-4-4-4-4-|-2---------------|
E|-0-0-3-4---------|-----------------|-----------------|




Chorus/Solo (1:10)   Joins Guitar on 3rd time through Chorus Riff

  play this 4x
G|---------------|-------------------|---------------|-------------------|
D|---------------|-------------------|---------------|-------------------|
A|-4-----2-2-----|-------------------|-2-------------|-------0---------2-|
E|---------------|-5--4-0----5-0---4-|--------5--4-4-|-2-2-0---0---2-4---|




Solo Ending (1:38)
G|-------|-----------------|-----------------|-----------------|----------------|
D|-------|-----------------|-----------------|-----------------|-------1--2--34-|
A|-------|-2-2-2-2-2-2-2-2-|-2-2-2-2-2---0-1-|-2-2-2-2-2-2-2-2-|-2-2-2----------|
E|-0-2-4-|-----------------|-----------4-----|-----------------|----------------|

G|-4-4-4-4-4-4----|-4-4-------------4-|-----------------|-----------------|----------------|
D|------------4---|-----4-4-6p4-6-7---|-------------1-4-|-7-7-6-6-4-4-----|----------------|
A|-------------2--|-------------------|-2-2-2-2-2-2-----|-------------7-7-|---------5-6-7--|
E|----------------|-------------------|-----------------|-----------------|-5-5-5-5--------|


Play Verse Again

Play Chorus Again

Play Solo Part similarly and repeat as song fades out


key
| /  slide up
| \  slide down
| h  hammer-on
| p  pull-off





Comments


Popular Boston tabs & chords
Feelin Satsified Chords
I Need Your Love Chords
Rok N Roll Band Chords
Dont Look Back Intro Tabs
Dreams Intro Tabs
Feelin Satisfied 2 Tabs
More Than A Feeling 2 Tabs
Pace Of Mind Tabs
Peace Of Mind 1 Tabs
Star Spangled Banner 1 Tabs


Song lyrics



↑ Back to top | Tablatures and chords are parodies/interpretations of the original songs. You may use it for private study, scholarship, research or language learning purposes only
© 2014 AZChords.com Contact us | Privacy policy | DMCA | Add/correct tabs | Request tabs | Top 50 tabs