>
 >
Higher Power

Higher Power Guitar Tabs

Boston - Higher Power chords, tabs, tablatures, lyrics

Guitar lessons | Add/correct | Request | Top 50 tabs Artists:  A B C D E F G H I J K L M N O P Q R S T U V W X Y Z 0-9

Higher Power Guitar Tabs – Boston

CD, Sheet music, Poster

Do you like Higher Power? Share with your friends now
TabsTabs v2

I didn't include the solo in the tab.
TUNING: STANDARD
/ = Slide
Intro
e-------------------------------\
B-------------------------------\
G--7-7-777----------------------\
D--7-7-77777--778-8-8881010-1010\ 6x
A--5-5-55577--778-8-8881010-1010\
E---------55--556-6-6668 8 -8 8 \

   
e------------------\
B------------------\
G--101010101010--8-\
D--101010101010--8-\    
A--8 8 8 8 8 8 --6-\
E------------------\
             
e------------------\-------------------\-----------------\--------------\
B------------------\-------------------\-----------------\--------------\
G------------------\-------------------\-----------------\--------------\
D--555555555--8-10-\--555555555--3-3/5-\--555555555-8-10-\--555555555-2-\   
A--555555555--8-10-\--555555555--3-3/5-\--555555555-8-10-\--555555555-2-\ 
E--333333333--6-8 -\--333333333--1-1/3-\--333333333-6-8 -\--333333333-0-\
                                        

   Verse 1: 
e------------------\-------------------\-----------------\---------------\
B------------------\-------------------\-----------------\---------------\
G------------------\-------------------\-----------------\---------------\
D--555555555--8-10-\--555555555--3-3/5-\--555555555-8-10-\--555555555--2-\   
A--555555555--8-10-\--555555555--3-3/5-\--555555555-8-10-\--555555555--2-\ 
E--333333333--6-8 -\--333333333--1-1/3-\--333333333-6-8 -\--333333333--0-\

  Chorus 1
e--------------------------\
B--------------------------\
G--6-6-666-----------------\
D--6-6-66666-667-7-77799-99\ 4x
A--4-4-44466-667-7-77799-99\
E---------44-445-5-55577-77\

   After Chorus 1
  
e---------------\---------------\------------------\---------------\
B---------------\---------------\------------------\---------------\
G--999999999--7-\--999999999--6-\------------------\---------------\
D--999999999--7-\--999999999--6-\--555555555--8/10-\--555555555--2-\
A--777777777--5-\--777777777--4-\--555555555--8/10-\--555555555--2-\
E---------------\---------------\--333333333--6/8 -\--333333333--0-\
   
Verse 2
e---------------------------\
B---------------------------\
G---------------------------\
D------3-----8/10---5555--2-\
A------3-----8/10---5555--2-\
E------1-----6/8 ---3333--0-\

 Chorus 2
e--------------------------\
B--------------------------\
G--6-6-666-----------------\
D--6-6-66666-667-7-77799-99\ 4x
A--4-4-44466-667-7-77799-99\
E---------44-445-5-55577-77\


  Pre-Solo
e---------------------------------------\
B---------------------------------------\
G--10-10-101010----------------------88-\
D--10-10-1010101010--101011-11-11111188-\
A--8 -8 -8 8 8 1010--101011-11-11111166-\
E--------------8 8 --8 8 9 -9 -9 9 9 ---\

  Outro
e--------------\     e----------------\     e---------------\
B--------------\     B----------------\     B---------------\
G------------8-\ 2x  G--999999999-7-7-\ 2x  G-----------7-7-\  1x
D--333333333-8-\     D--999999999-7-7-\     D--33333333-7-7-\
A--333333333-6-\     A--777777777-5-5-\     A--33333333-5-5-\
E--111111111---\     E----------------\     E--11111111-----\
       
e------------------\
B------------------\
G------------7-7/9-\
D--333333333-7-7/9-\
A--333333333-5-5/7-\
E--111111111-------\





Comments


Popular Boston tabs & chords
More Than A Feeling 3 Bass Tabs
Rock And Roll Band Bass Tabs
Peace Of Mind Chords
I Had A Good Time Tabs
More Than A Feeling 2 Tabs
Pace Of Mind Tabs
Party Tabs
Dont Look Back Ukulele
More Than A Feeling Ukulele
Tell Me Ukulele


Song lyrics



↑ Back to top | Tablatures and chords are parodies/interpretations of the original songs. You may use it for private study, scholarship, research or language learning purposes only
© 2014 AZChords.com Contact us | Privacy policy | DMCA | Add/correct tabs | Request tabs | Top 50 tabs