>
 >
Hitch A Ride

Hitch A Ride Guitar Tabs

Boston - Hitch A Ride chords, tabs, tablatures, lyrics

Guitar lessons | Add/correct | Request | Top 50 tabs Artists:  A B C D E F G H I J K L M N O P Q R S T U V W X Y Z 0-9

Hitch A Ride Guitar Tabs – Boston

CD, Sheet music, Poster

Do you like Hitch A Ride? Share with your friends now
ChordsTabsTabs v2Ukulele
Tuning: F A# D# G# C F
Or capo the 1st fret

------------------------------|-0------3---------2--------0-----------------|
-----5-------3-----3-------2--|-2------3---------3--------2-----------------|
---------------------------2--|-2------0---------2--------2-----------------|
---7-------5-----4---4---2-2--|-2------0---------0--------2-----------------|
-0-------0-----0-------0------|-0------2---------0--------0-----------------|
------------------------------|--------3------------------------------------|
 Intro                         Day is night in New York City

-0------------3-----2------0-----|-0--------3------------2-------0----------|
-2------------3-----3------2-----|-2--------3------------3-------2----------|
-2------------0-----2------2-----|-2--------0------------2-------2----------|
-2------------0-----0------2-----|-2--------0------------0-------2----------|
-0------------2-----0------0-----|-0--------2------------0-------0----------|
--------------3------------------|----------3-------------------------------|
 Smoke like water runs inside     Steel light of the trees to pity

-0--------3-------2-----------0---|-2----3---2----------3----------------0--|
-2--------3-------3-----------2---|-3----3---3----------3----------------2--|
-2--------0-------2-----------2---|-2----2---2----------0----------------2--|
-2--------0-------0-----------2---|-0----0---0----------0----------------2--|
-0--------2-------0-----------0---|---------------------2----------------0--|
----------3-----------------------|---------------------3-------------------|
 Every living thing that's died    Gonna hitch a ride head forthe other side

-3---------------0----|--3---------------0---|-2---3--2---------------------|
-3---------------2----|--3---------------2---|-3---3--3---------------------|
-0---------------2----|--0---------------2---|-2---2--2---------------------|
-0---------------2----|--0---------------2---|-0---0--0---------------------|
-2---------------0----|--2---------------0---|------------------------------|
-3--------------------|--3-------------------|------------------------------|
 Leave it all behind    Never change my mind   Gonna sail away

-3--------------0-------|--3-------------0-----3-------0-----------2--------|
-3--------------2-------|--3-------------2-----3-------2-----------3--------|
-0--------------2-------|--0-------------2-----0-------2-----------2--------|
-0--------------2-------|--0-------------2-----0-------2-----------0--------|
-2--------------0-------|--2-------------0-----2-------0--------------------|
-3----------------------|--3-------------------3----------------------------|
 Sun lights another day   Freedom of my mind carry me away for the last time

------------5----|-------------3--|-------2---------|-----------------------|
-5------5-----5--|---3-----3-----0|---3-----3---3---|---------2h3---2-------|
-----------------|-----0-----0----|-----2-----2---2-|-----2-------2---2-----|
---7------7------|-0-----0--------|-0---------------|---2-------------------|
-----7-----------|----------------|-----------------|-0-----0---------------|
-----------------|----------------|-----------------|-----------------------|
 Then repeat the verse and chorus

-0-----------------------2----7-------|-------------------------------------|
-2-----------------------2----9-------|-------------------------------------|
-2-----------------------2----9-------|----------2v-2v-2v-2v-2v-2v-2v-2v-2v-|
-2-----------------------4----9-------|-------------------------------------|
-0-----------------------4----7-------|-------------------------------------|
-------------------------2----7-------|-------------------------------------|
 Carry me away for the last time                -1 with wammy bar (feedback)

----------------------------------------------------------------------------|
-12b14-12b14-12b14r12-12b14r12-12b14r12-12b14r12-10h12p10-------------------|
----------------------------------------------------------11p9----9---------|
---------------------------------------------------------------11-----------|
----------------------------------------------------------------------------|
----------------------------------------------------------------------------|


-------12-------12-------12-------12-----12-14-16b17------------------------|
-12b14----12b14----12b14----12b14----/14------------------------------------|
----------------------------------------------------------------------------|
----------------------------------------------------------------------------|
----------------------------------------------------------------------------|
----------------------------------------------------------------------------|


-----------0-------------0------------------2---|-----5---5h7---5----|------|
-----------2-------------0----------3---------3-|--------------------|------|
-----------2-------------1--------2---2---2-----|---5---5-----5---5--|------|
-----------2-------------2------0-------0-------|-0------------------|------|
-----------0-------------2----------------------|--------------------|------|
-------------------------0----------------------|--------------------|------|
 Carry me away for the last time

-----3---3h5---3----|---------0h2---0--|----------10-12-10-------10-12b14r12-|
--------------------|-----3-------3---3|-10-10h12----------10h12-------------|
---4---4-----4---0--|---2--------------|-------------------------------------|
-0------------------|-0-----0----------|-------------------------------------|
--------------------|------------------|-------------------------------------|
--------------------|------------------|-------------------------------------|
                                        Main Guitar Solo

-10---10----------10--------------------------------------------------17----|
---12----10-10h12--------------------------------------------15-17b19----15-|
---------------------12-11---------14-16\--------14----14-16----------------|
-----------------------------14/16---------14/16----16----------------------|
----------------------------------------------------------------------------|
----------------------------------------------------------------------------|


-17b19r17-15-14h15p14------------------------------17-----------------------|
----------------------17-15-15-17-15--15-17b19-b19----17b19-----------------|
----------------------------------------------------------------------------|
-------------------------------------------------------------x--------------|
-------------------------------------------------------------x\-------------|
--------------------------------------------------------------\\------------|
                                                               \\

----------------------------------------------------------------------------|
-------------------------------------10-----------10b12-10-8--7h8p7---------|
--9b11r9-7---7-7-----7-9--9b11r9---7----7--9b11-9-------------------9p7-----|
-----------9-----9p7-------------9------------------------------------------|
----------------------------------------------------------------------------|
----------------------------------------------------------------------------|


----------------------------------------------------------------------------|
----------------------------------------------------------------------------|
----7-----b11r9-b11r9-b11r9-b11--x-----7-9b11r9-7---7-7---------------------|
--9---9p7------------------------x\---------------9------9p7----------------|
----------------------------------\\----------------------------------------|
-----------------------------------\\---------------------------------------|
                                    \\

------------------------------10/14-----------------------19----------------|
---------------13--14---7/15----------------19b20-b20-b20----19b20r19-17-19-|
-9b11r9-7----7--9--10----------------11-12----------------------------------|
----------9-----------------------------------------------------------------|
----------------------------------------------------------------------------|
----------------------------------------------------------------------------|
 2guitars arr. for 1   (Guitar 2 to right of slash)

-------17---------------15-14h15p14----14-15---------15-14h15p14----14-15----|
-17b19----b19r17-15--15-------------17------------15-------------17----------|
----------------------------------------------17--------------------------16-|
-----------------------------------------------------------------------------|
-----------------------------------------------------------------------------|
-----------------------------------------------------------------------------|


----15-------15-14h15p14----------------------------------------------------|
-15----------------------17-15-12-------------------------10-------7-10-7---|
-------15-14----------------------14-12-11h12p11-----9b11----9b11-----------|
-------------------------------------------------12-------------------------|
----------------------------------------------------------------------------|
----------------------------------------------------------------------------|


-----------------------------------------------------------------------------|
---7-10-7---------10b12--10-8-7h8p7-------------------------------------8-10-|
-9--------9-7---7--------------------9p7--7-------7-9p7---7h9p7-------7------|
--------------9-------------------------9---9p7-9-------9-------9p7h9--------|
-----------------------------------------------------------------------------|
-----------------------------------------------------------------------------|


----------------------------------------------------------------------------|
---7-8-10-12p10----10h12p10--1313b15r13-10-13-10----10-12-10-12-10----10----|
-7--------------12-------------------------------12----------------12-------|
----------------------------------------------------------------------------|
----------------------------------------------------------------------------|
----------------------------------------------------------------------------|


-13b15r14r13-13b15-13b15r13-11-13p10----10h13p10h12p11----------------------|
-------------------------------------12----------------12-10-13b15-13-12-10-|
----------------------------------------------------------------------------|
----------------------------------------------------------------------------|
----------------------------------------------------------------------------|
----------------------------------------------------------------------------|


----------------------------------------------------------------------------|
----------------------------------------------------------------------------|
-13p12p10------------------------12-11h12p11----11-12-11----12-11h12p11-----|
----------12p11p10--------/12-12-------------14----------12-------------14--|
-------------------10\9-----------------------------------------------------|
----------------------------------------------------------------------------|


------------------------------------------------10h12-10h12-10h12p10--------|
-----------------------------13b15-13b15--10-12----------------------12-----|
-12-11-----12-11-------9--11------------------------------------------------|
-----------------10-12------------------------------------------------------|
-------14-------------------------------------------------------------------|
----------------------------------------------------------------------------|


--10h12p10----10h12p10----10h12p10----10h12p10-------18b20------------------|
-----------12----------12----------12----------12-10-------17p15------------|
-----------------------------------------------------------------16---------|
----------------------------------------------------------------------------|
----------------------------------------------------------------------------|
----------------------------------------------------------------------------|


--------------------15b17--15b17--------------------------------------------|
-15h17p15-------14--17b19--17b19-------------15-17-15----------15-17b19r17--|
----------16p14---------------------14-14h16----------14-14h16--------------|
----------------------------------------------------------------------------|
----------------------------------------------------------------------------|
----------------------------------------------------------------------------|


----------------------14b15-------------|---------2---------------3---------|
-15----15----------15--------15---------|-----3-----3---3-----1-----1---1---|
----16----14-14-16-----------12--11/14--|---2---2-----2-----0---0-----0-----|
----------------------------------------|-0---------------0-----------------|
----------------------------------------|-----------------------------------|
----------------------------------------|-----------------------------------|
                                         1st (2)           1st (3)

----------3--------|-2------------------------------------------------------|
------3-----3---3--|-3------------------------------------------------------|
----0---0-----0----|-2------------------------------------------------------|
--0----------------|-0------------------------------------------------------|
-------------------|--------------------------------------------------------|
-------------------|--------------------------------------------------------|
1st (7)            1st (4)

I hope you enjoy it!





Comments


Popular Boston tabs & chords
Foreplay Long Time Intro 1 Bass Tabs
More Than A Feeling 1 Chords
Used To Bad News Chords
Don't Look Back Tabs
Foreplay/Longtime 1 Tabs
Gonna Hitch A Ride Tabs
I Had A Good Time (Solo) Tabs
More Than A Feeling (Solo Ver 2) Tabs
Feelin Satsified Ukulele
To Be A Man Ukulele


Song lyrics



↑ Back to top | Tablatures and chords are parodies/interpretations of the original songs. You may use it for private study, scholarship, research or language learning purposes only
© 2014 AZChords.com Contact us | Privacy policy | DMCA | Add/correct tabs | Request tabs | Top 50 tabs