>
 >
More Than A Feeling

More Than A Feeling Bass Tabs

Boston - More Than A Feeling chords, tabs, tablatures, lyrics

Guitar lessons | Add/correct | Request | Top 50 tabs Artists:  A B C D E F G H I J K L M N O P Q R S T U V W X Y Z 0-9

More Than A Feeling Bass Tabs – Boston

CD, Sheet music, Poster

Do you like More Than A Feeling? Share with your friends now
Bass TabsBass Tabs v2Bass Tabs v3Bass Tabs v4ChordsChords v2Chords v3TabsTabs v2Tabs v3Tabs v4Tabs v5Tabs v6Tabs v7Tabs v8Tabs v9Ukulele
"MORE THAN A FEELING"  BY BOSTON



G ---------|-----------|----------------|---------2x|---------------|---|---|
D *--------|----------*|*---------------|----------*|---------------|---|---|
A *-5----0-|-3---2----*|*-5---5---5-575-|-3---2----*|-5---5---5-575-|-3-|-2-|
E ---------|--------3--|----------------|--------3--|---------------|---|---|
    1  4 +   1 2 +  4     1 2 + 3 + 4e+   1 2 +  4    1 2 + 3 + 4e+   1   1

G ----------------|-----------------|-----------|-------------4x|
D -7-7p9-7-5-7p5--|-----------------|*----------|--------------*|
A --------------7-|-5-5-5-5-5-5-5-5-|*------3-3-|-7-777-7--5-5-*|
E ----------------|-----------------|--3-3------|---------------|
   1 2 e + 3 4 e+   1 + 2 + 3 + 4 +    1 2  + 4   1 +e2 +  + 4


G ----------|---|------------|-------1/4-----3-2-|---------3---|----------|
D ----------|---|----5-7-5-7-|-------------5--5--|-5---4----00-|-5--4-----|
A ------3-3-|-6-|-7----------|-------------------|-------------|--------7-|
E -3-3------|---|------------|-5-5-7-------------|-------------|----------|
   1 2  + 4   1   1  3 + 4 +   1 + 2 +   3 + 4e+   1 2 +   4e+   1  + 3 4

G ------1/|-5---4----|---|----------|----------------|---------2x|
D --------|--------5-|---|----------|*---------------|----------*|
A -5------|----------|-5-|-3---2----|*-5---5---5-575-|-3---2----*|
E --------|----------|---|--------3-|----------------|--------3--|
   1  4 +   1 2 +  4   1   1 2 +  4    1 2 + 3 + 4e+   1 2 +  4

G -----7-------|---|---|--------------|----------|-----------|-------------4x|
D ---57----5---|---|---|-7-7---5-7p5--|----------|*----------|--------------*|
A -5-----5--02-|-3-|-2-|-----7------7-|-55555555-|*------3-3-|-7-777-7--5-5-*|
E -------------|---|---|--------------|----------|--3-3------|---------------|
   1 2e+ + 4e+   1   1   1 2 + 3 4e +   1+2+3+4+    1 2  + 4   1 +e2 +  + 4

G ----------|---|------------|-------1/4-----3-2-|-4-4-4-4-2-2-2-2-|
D ----------|---|----5-7-5-7-|-------------5--5--|-----------------|
A ------3-3-|-6-|-7----------|-------------------|-----------------|
E -3-3------|---|------------|-5-5-7-------------|-----------------|
   1 2  + 4   1   1  3 + 4 +   1 + 2 +   3 + 4e+   1 + 2 + 3 + 4 +

G -----------------|-----------------|-----------------|
D -5-5-5-5-4-4-4-4-|-7-7-7-7-7-7-7-7-|-----------------|
A -----------------|-----------------|-----------------|
E -----------------|-----------------|-5-5-5-5-5-5-5-5-|
   1 + 2 + 3 + 4 +   1 + 2 + 3 + 4 +   1 + 2 + 3 + 4 +

G -GUITAR SOLO---|---------------|---------------|---------|----------|--------7-7-|
D ---------------|---------------|-----5-5-4-5-4-|-5-4-----|------5-5-|-9-9-9------|
A -5-----5---5---|-----------2-4-|-5-5-----------|-----5---|-5-5------|------------|
E -----5---5---2-|-2---2-2-5-----|---------------|-------5-|----------|------------|
   1 2 + 3 + 4 +   1 2 + 3 + 4 +   1 2 + 3 + 4 +   1 + 2 +   1 2  + 4   1 + 2  + 4

G -----------------|-----------------|-----------------|----------|---| pause here
D ---------9-9-9-9-|---------7-7-7-7-|-5-5-5-5-5-5-5-5-|-5---4----|---| for guitar
A -5-5-5-5---------|-7-7-7-7---------|-----------------|--------7-|-5-| and vocal
E -----------------|-----------------|-----------------|----------|---| break!
   1 + 2 + 3 + 4 +   1 + 2 + 3 + 4 +   1 + 2 + 3 + 4 +   1 2 +  4   1

G -----------------|---------------|---------------|----------|--------|----------|
D -----------------|---------------|---------------|----------|--------|----------|
A -5-5-5-5-5-5-5-5-|-3-3-3-2-2-3-3-|-5---5---5-575-|-3---2----|-5----2-|-3---2----|
E -----------------|---------------|---------------|--------3-|----5---|--------3-|
   1 + 2 + 3 + 4 +   1 + 2 + 3 + 4   1 2 + 3 + 4e+   1 2 +  4   1  4 +   1 2 +  4

G -------------|----------|--------|---|---|-----------------|-------------------|
D -----5-------|----------|--------|---|---|-7-7-7-7-5-5-----|*-----------------*|
A -5-----5-575-|-3---2----|-5----2-|-3-|-2-|-------------2-3-|*-5-5-5-5-5-5-5-5-*|
E -------------|--------3-|----5---|---|---|-----------------|-------------------|
   1 2 + + 4e+   1 2 +  4   1  4 +   1   1   1 + 2 + 3 + 4 +    1 + 2 + 3 + 4 +

G -----------|---------------|
D *----------|--------------*| play this untill the end of the song
A *------3-3-|-7-777-7--5-5-*|
E --3-3------|---------------|
    1 2  + 4   1 +e2 +  + 4





Comments


Popular Boston tabs & chords
Smokin Bass Tabs
Rok N Roll Band Chords
Used To Bad News Chords
A New World Tabs
Higher Power Tabs
More Than A Feeling 1 Tabs
More Than A Feeling 3 Tabs
Peace Of Mind (Intro) Tabs
Star Spangled Banner 1 Tabs
Feelin Satsified Ukulele


Song lyrics



↑ Back to top | Tablatures and chords are parodies/interpretations of the original songs. You may use it for private study, scholarship, research or language learning purposes only
© 2014 AZChords.com Contact us | Privacy policy | DMCA | Add/correct tabs | Request tabs | Top 50 tabs