>
 >
Cool The Engines

Cool The Engines Guitar Tabs

Boston - Cool The Engines chords, tabs, tablatures, lyrics

Guitar lessons | Add/correct | Request | Top 50 tabs Artists:  A B C D E F G H I J K L M N O P Q R S T U V W X Y Z 0-9

Cool The Engines Guitar Tabs – Boston

CD, Sheet music, Poster

Do you like Cool The Engines? Share with your friends now
TabsTabs v2Tabs v3
#------------------------------------------------------------------------------##

                                COOL THE ENGINES
                              As recorded by Boston
                        (From the 1986 Album THIRD STAGE)

Words by Tom Sholz, Fran Sheehan and Brad Delp

Music by Tom Sholz and Brad Delp
Arranged by Tom Sholz

           B
      x 2 4 4 4 x

Gtr I (E A D G B E)
Gtr II (E A D G B E)
Gtr III (E A D G B E)
Gtr IV (E A D G B E) - 'Overdubbed'

 Intro
  B       E/B  B    E/B B                      B                 E/B     B
 4/4
  Gtr I
                                                                     ~~~~
|-----------------|--------------------------|------------------------------|
|-----------------|--------------------------|-10-(10)b12==========(10)-----|
|-----------------|--------------------------|------------------------------|
|-----------------|--------------------------|------------------------------|
|-----------------|--------------------------|------------------------------|
|-----------------|--------------------------|------------------------------|
|
| Gtr II
|-----------------|--------------------------|------------------------------|
|---4-(4)-5-5--4--|--5--4-(4)-4----4---------|-------------4-(4)-5---5---4--|
|---4-(4)-4-4--4--|--4--4-(4)-4----4---------|-------------4-(4)-4---4---4--|
|---4-(4)-6-6--4--|--6--4-(4)-4----4---------|-------------4-(4)-6---6---4--|
|-----------------|--------------------------|------------------------------|
|-----------------|--------------------------|------------------------------|
|
| Gtr III
|-----------------|--------------------------|------------------------------|
|-----------------|--------------------------|------------------------------|
|-----------------|------------------------4-|------------------------------|
|-----------------|--------------------------|------------------------------|
|-2---------------|-(2)----2----2-(2)--2h6---|------2-----------------------|
|-----------------|--------------------------|------------------------------|


  E/B   B
    ~~~~~
|--------------------------------------|
|-(10)r--------------------------------|
|--------------------------------------|
|--------------------------x\----------|
|--------------------------x\----------|
|--------------------------------------|
|
|--------------------------------------|
|---5---4-(4)-4----4-------------------|
|---4---4-(4)-4----4-------------------|
|---6---4-(4)-4----4-------------------|
|--------------------------------------|
|--------------------------------------|
|
|--------------------------------------|
|--------------------------------------|
|--------------------------6b8r(6)p4---|
|------------------------x-----------6-|
|--(2)-----2----2-(2)--x---------------|
|--------------------------------------|


             E/B    B    E/B B
                ~~~~~~~~~~~~~
|----------------------|---------------------------|
|----------------------|---------------------------|
|-6---(6)b8====(6)-----|-(6)-6-----6----6r==(6)--4-|
|----------------------|---------------------------|
|----------------------|---------------------------|
|----------------------|---------------------------|
|
|----------------------|---------------------------|
|---4-(4)----5--5---4--|--5--4-(4)-4----4----------|
|---4-(4)----4--4---4--|--4--4-(4)-4----4----------|
|---4-(4)----6--6---4--|--6--4-(4)-4----4----------|
|----------------------|---------------------------|
|----------------------|---------------------------|
|
|----------------------|---------------------------|
|----------------------|---------------------------|
|----------------------|-------------------------4-|
|----------------------|---------------------------|
|-2--------------------|--2-----2----2-(2)---2h6---|
|----------------------|---------------------------|


            E/B       B
|-------------------------|
|-------------------------|
|-x-4----4----(4)-6b8---4-|
|-------------------------|
|-------------------------|
|-------------------------|
|
|-------------------------|
|-----4-(4)-5--5------4---|
|-----4-(4)-4--4------4---|
|-----4-(4)-6--6------4---|
|-------------------------|
|-------------------------|
|
|-------------------------|
|-------------------------|
|-------------------------|
|-------------------------|
|-2-----------------------|
|-------------------------|


                                    1st verse
  E/B  B                                     E/B  B
                    ~~
|------7------7-----7-------------||------------------|
|------7------7-------------------||------------------|
|--6b8----------------------------||------------------|
|---------------------------------||------------------|
|---------------------------------||------------------|
|---------------------------------||------------------|
|
|---------------------------------||------------------|
|--5---4--(4)-4-------------------||---4-(4)-5-5--4---|
|--4---4--(4)-4-------------------||---4-(4)-4-4--4---|
|--6---4--(4)-4-------------------||---4-(4)-6-6--4---|
|---------------------------------||------------------|
|---------------------------------||------------------|
|
|---------------------------------||------------------|
|---------------------------------||------------------|
|-----------------------4-6b8r(6)-||------------------|
|---------------------------------||------------------|
|-(2)------2----2-2h5p2-----------||-2----------------|
|---------------------------------||------------------|


  E/B B                              E/B  B    E/B B
      Gtr II
|--------------------------|-----------------|---------------------------------|
|--5--4-(4)-4----4---------|---4-(4)-5-5--4--|--5--4-(4)-4---------------------|
|--4--4-(4)-4----4---------|---4-(4)-4-4--4--|--4--4-(4)-4---------------------|
|--6--4-(4)-4----4---------|---4-(4)-6-6--4--|--6--4-(4)-4---------------------|
|--------------------------|-----------------|---------------------------------|
|--------------------------|-----------------|---------------------------------|
|
|     Gtr III
|--------------------------|-----------------|---------------------------------|
|--------------------------|-----------------|---------------------------------|
|------------------------4-|-----------------|---------------------4-----------|
|--------------------------|-----------------|---------------------------------|
|-(2)----2----2-(2)--2h6---|-2---------------|-(2)----2----2-2h5p2---2h5p2-----|
|--------------------------|-----------------|-----------------------------5b6-|


          E/B  B    E/B B                                     E/B  B
|-----------------|---------------------------------|------------------|
|---4-(4)-5-5--4--|--5--4-(4)-4---------------------|---4-(4)-5-5--4---|
|---4-(4)-4-4--4--|--4--4-(4)-4---------------------|---4-(4)-4-4--4---|
|---4-(4)-6-6--4--|--6--4-(4)-4---------------------|---4-(4)-6-6--4---|
|-----------------|---------------------------------|------------------|
|-----------------|---------------------------------|------------------|
|
|-----------------|---------------------------------|------------------|
|-----------------|---------------------------------|------------------|
|-----------------|---------------------4-----------|------------------|
|-----------------|---------------------------------|------------------|
|-2---------------|-(2)----2----2-2h5p2---2h5p2-----|-2----------------|
|-----------------|-----------------------------5b6-|------------------|


                                  chorus
  E/B B                            N.C.
                                                   ~
|-------------------------------||---------------------------|
|--5--4--4--4-------------------||---------------------------|
|--4--4--4--4-------------------||---------------------------|
|--6--4--4--4-------------------||-----------4-(4)-------2h4-|
|-------------------------------||---------4---------2h4-----|
|-------------------------------||-2-2-2-6---------5---------|
|
|                                                  ~
|-------------------------------||---------------------------|
|-------------------------------||---------------------------|
|-------------6b8r6p4-----------||---------------------------|
|---------------------6p4-------||-----------4-(4)-------2h4-|
|-(2)---(2)---------------6-6p2-||---------4---------2h4-----|
|-------------------------------||-2-2-2-6---------5---------|


                    E5 B   N.C.
  Gtrs II, III
                                           ~
|------------------------|---------------------------|
|-------------------5--4-|---------------------------|
|-------------------4--4-|---------------------------|
|-----------4-(4)---2--4-|-----------4-(4)-------2h4-|
|---------4-------2----2-|---------4---------2h4-----|
|-2-2-2-6----------------|-2-2-2-6---------5---------|


                    E5
|-------------------------------|
|-------------------5-----------|
|-------------------4-----------|
|-----------4-(4)---2-----------|
|---------4-------2---2h6p2-----|
|-2-2-2-6-------------------5---|


  N.C.                                          E5 B
                  ~
|---------------------------|------------------------|
|---------------------------|-------------------5--4-|
|---------------------------|-------------------4--4-|
|-----------4-(4)-------2h4-|-----------4-(4)---2--4-|
|---------4---------2h4-----|---------4-------2----2-|
|-2-2-2-6---------5---------|-2-2-2-6----------------|


  N.C.
                  ~
|---------------------------|-------------------------|
|---------------------------|-------------------------|
|---------------------------|-------------------------|
|-----------4-(4)-------2h4-|-----------4--5--6--7----|
|---------4---------2h4-----|---------4-------------7-|
|-2-2-2-6---------5---------|-2-2-2-6---------------7-|


  E5
|----------|-----------------------|
|----------|-----------------------|
|-9--------|-(9)------(9)----------|
|-9--------|-(9)------(9)----------|
|-7--------|-(7)------(7)-x--------|
|-7--------|-(7)------(7)-x\-5b6---|


    B     E/B  B    E5  B
  Gtr II
|-----------------|--------------------------|
|---4-(4)-5-5--4--|--5--4-(4)-4----4---------|
|---4-(4)-4-4--4--|--4--4-(4)-4----4---------|
|---4-(4)-6-6--4--|--6--4-(4)-4----4---------|
|-----------------|--------------------------|
|-----------------|--------------------------|
|
| Gtr III
|-----------------|--------------------------|
|-----------------|--------------------------|
|-----------------|------------------------4-|
|-----------------|--------------------------|
|-2---------------|-(2)----2----2-(2)--2h6---|
|-----------------|--------------------------|


          E/B  B    E/B B
|-----------------|-------------------------------------------|
|---4-(4)-5-5--4--|--5--4-(4)-4-------------------------------|
|---4-(4)-4-4--4--|--4--4-(4)-4-------------------------------|
|---4-(4)-6-6--4--|--6--4-(4)-4-------------------------------|
|-----------------|-------------------------------------------|
|-----------------|-------------------------------------------|
|
|-----------------|-----------------------------7-------------|
|-----------------|-------------------------------------------|
|-----------------|---------------6b8r(6)b8-(6)---6b8r(6)-4---|
|-----------------|-----------------------------------------6-|
|-2---------------|-(2)----2----2-----------------------------|
|-----------------|-------------------------------------------|


 2nd Verse
          E/B  B    E/B B
|-----------------|--------------------------|
|---4-(4)-5-5--4--|--5--4-(4)-4----4---------|
|---4-(4)-4-4--4--|--4--4-(4)-4----4---------|
|---4-(4)-6-6--4--|--6--4-(4)-4----4---------|
|-----------------|--------------------------|
|-----------------|--------------------------|
|
|-----------------|--------------------------|
|-----------------|--------------------------|
|-----------------|------------------------4-|
|-----------------|--------------------------|
|-2---------------|-(2)----2----2-(2)--2h6---|
|-----------------|--------------------------|


          E/B  B    E/B B
|-----------------|-----------------------------------|
|---4-(4)-5-5--4--|--5--4-(4)-4-----------------------|
|---4-(4)-4-4--4--|--4--4-(4)-4-----------------------|
|---4-(4)-6-6--4--|--6--4-(4)-4-----------------------|
|-----------------|-----------------------------------|
|-----------------|-----------------------------------|
|
|-----------------|-----------------------------------|
|-----------------|-----------------------------------|
|-----------------|---------------------4-------------|
|-----------------|-----------------------------------|
|-2---------------|-(2)----2----2-2h5p2---2h5p2-------|
|-----------------|-----------------------------5p2---|


          E/B  B    E/B B
|-----------------|--------------------------|
|---4-(4)-5-5--4--|--5--4-(4)-4----4---------|
|---4-(4)-4-4--4--|--4--4-(4)-4----4---------|
|---4-(4)-6-6--4--|--6--4-(4)-4----4---------|
|-----------------|--------------------------|
|-----------------|--------------------------|
|
|-----------------|--------------------------|
|-----------------|--------------------------|
|-----------------|------------------------4-|
|-----------------|--------------------------|
|-2---------------|-(2)----2----2-(2)--2h6---|
|-----------------|--------------------------|


          E/B  B    E/B B
|-----------------|------------------------------||
|---4-(4)-5-5--4--|--5--4-4-4--------------------||
|---4-(4)-4-4--4--|--4--4-4-4--------------------||
|---4-(4)-6-6--4--|--6--4-4-4--------------------||
|-----------------|------------------------------||
|-----------------|------------------------------||
|
|-----------------|------------------------------||
|-----------------|------------------------------||
|-----------------|-----------6b8r6p4------------||
|-----------------|-------------------6p4--------||
|-2---------------|-(2)---2---------------6-6p2--||
|-----------------|------------------------------||


 Chorus
  N.C.
  Gtrs II, III
                  ~
|---------------------------|
|---------------------------|
|---------------------------|
|-----------4-(4)-------2h4-|
|---------4---------2h4-----|
|-2-2-2-6---------5---------|


                    E5 B   N.C.
                                           ~
|------------------------|---------------------------|
|-------------------5--4-|---------------------------|
|-------------------4--4-|---------------------------|
|-----------4-(4)---2--4-|-----------4-(4)-------2h4-|
|---------4-------2----2-|---------4---------2h4-----|
|-2-2-2-6----------------|-2-2-2-6---------5---------|


                    E5
|-----------------------------|
|-------------------5---------|
|-------------------4---------|
|-----------4-(4)---2---------|
|---------4-------2---2h6p2---|
|-2-2-2-6-------------------5-|


  N.C.                                          E5 B
                  ~
|---------------------------|--------------------------|
|---------------------------|-------------------5--4---|
|---------------------------|-------------------4--4---|
|-----------4-(4)-------2h4-|-----------4-(4)---2--4---|
|---------4---------2h4-----|---------4-------2----2---|
|-2-2-2-6---------5---------|-2-2-2-6------------------|


  N.C.                                                  E5
                  ~
|---------------------------|-------------------------|------|
|---------------------------|-------------------------|------|
|---------------------------|-------------------------|-9----|
|-----------4-(4)-------2h4-|-----------4--5--6--7----|-9----|
|---------4---------2h4-----|---------4-------------7-|-7----|
|-2-2-2-6---------5---------|-2-2-2-6---------------7-|-7----|


                              N.C.
|------------|------------||------------------------|
|------------|------------||o-----------------------|
|-(9)--------|-(9)--------||-------------------7b8--|
|-(9)--------|-(9)--------||--7h9-9-9-9--7h9-9-7b8--|
|-(7)--------|-(7)--------||o-----------------------|
|-(7)--------|-(7)--------||------------------------|
|
|                         Gtr III
|------------|------------||------------------------|
|------------|------------||o-----------------------|
|------------|------------||------------------------|
|------------|------------||------------------------|
|------------|------------||o-2---2-2-2--2---2------|
|------------|------------||------------------------|


                                     4x
|------------------------------------||------------------------|
|-----------------------------------o||------------------------|
|---------9---9-7h=8-------9--7h=8---||------------------7b8---|
|-7h9-9-9-9-9-9-7-(7)-9-9--9--7-(7)--||-7h9-9-9-9--7h9-9-7b8-9-|
|-----------------------------------o||------------------------|
|------------------------------------||------------------------|
|
|                                    4x
|------------------------------------||------------------------|
|-----------------------------------o||------------------------|
|------------------------------------||------------------------|
|------------------------------------||------------------------|
|-2---2-2-2-----------2-2-(2)-2-----o||-2---2-2-2--2---2-----2-|
|------------------------------------||------------------------|


|-------------------------------||-------------------------|
|-------------------------------||o------------------------|
|---------------9---9-7h=8--x-x-||-------------------7b8---|
|-7h9-9-9-9-7h9-9---9-7-(7)-x-x-||--7h9-9-9-9--7h9-9-7b8-9-|
|-------------------------------||o------------------------|
|-------------------------------||-------------------------|
|
|-------------------------------||-------------------------|
|-------------------------------||o------------------------|
|-------------------------------||-------------------------|
|-------------------------------||-------------------------|
|-2---2-2-2-2---2-2---2-----x-x-||o-2---2-2-2--2---2-----2-|
|-------------------------------||-------------------------|


                                 3x
|--------------------------------||
|-------------------------------o||
|---------------9---9-7h=8--x-x--||
|-7h9-9-9-9-7h9-9---9-7-(7)-x-x--||
|-------------------------------o||
|--------------------------------||
|
|                                3x
|--------------------------------||
|-------------------------------o||
|--------------------------------||
|--------------------------------||
|-2---2-2-2-2---2-2---2-----x-x-o||
|--------------------------------||


          ~          ~            ~            ~
|-----------------------|------------------------|
|-----------------------|------------------------|
|-----------------------|------------------------|
|---------9----------7--|---------6--------------|
|-----------------------|--------------------7-5-|
|-----------------------|------------------------|
|
|-----------------------|------------------------|
|-----------------------|------------------------|
|-----------------------|------------------------|
|-----------------------|------------------------|
|-2-2-2-2----2-2-2-2----|-2-2-2-2----2-2-2-2-----|
|-----------------------|------------------------|


          ~          ~            ~            ~
|-----------------------|------------------------|
|-----------------------|------------------------|
|-----------------------|------------------------|
|---------9----------7--|---------6--------------|
|-----------------------|--------------------7-5-|
|-----------------------|------------------------|
|
|-----------------------|------------------------|
|-----------------------|------------------------|
|-----------------------|------------------------|
|-----------------------|------------------------|
|-2-2-2-2----2-2-2-2----|-2-2-2-2----2-2-2-2-----|
|-----------------------|------------------------|


          ~          ~            ~            ~
|-----------------------|-------------------------|
|-----------------------|-------------------------|
|-----------------------|-------------------------|
|---------9----------7--|---------6---------------|
|-----------------------|--------------------7-5--|
|-----------------------|-------------------------|
|
|-----------------------|-------------------------|
|-----------------------|-------------------------|
|-----------------------|-------------------------|
|-----------------------|-------------------------|
|-2-2-2-2----2-2-2-2----|-2-2-2-2----2-2-2-2------|
|-----------------------|-------------------------|


  Gtr I
          ~          ~              ~          ~~
|-----------------------|--------------------------|
|-----------------------|---------------------10---|
|--------------------7--|---------9-9---------11---|
|---------9----------7--|--------------------------|
|-2-2-2-2----2-2-2-2----|-2-2-2-2-----2-2-2-2------|
|-----------------------|--------------------------|
|
| Gtr II
|         ~          ~            ~
|-----------------------|--------------------------|
|-----------------------|--------------------------|
|-----------------------|--------------------------|
|---------9----------7--|---------6----------------|
|-2-2-2-2----2-2-2-2----|-2-2-2-2-----2-2-2-2--7-5-|
|-----------------------|--------------------------|


  B
  Gtrs I, II
|-------------------------|-------------------------||
|-4-----4-----4-----4-----|-4-----4-----4-----4-----||
|-4-----4-----4-----4-----|-4-----4-----4-----4-----||
|-4-4-4-4-4-4-4-4-4-4-4-4-|-4-4-4-4-4-4-4-4-4-4-4-4-||
|-2-2-2-2-2-2-2-2-2-2-2-2-|-2-2-2-2-2-2-2-2-2-2-2-2-||
|-------------------------|-------------------------||


 Solo
  Gtr II
                        ~                                      ~
|-----------------------------------------|----------------------------------|
|-----------------------------------------|----------------------------------|
|-----------------------------------------|----------------------------------|
|----------------4--(4)--------------2h=4-|-------------4--(4)----------2h4--|
|--------------4----------------2h4-------|-----------4-------------2h4------|
|-2-2--2-----6----------5-----------------|--2--2-2-6----------5-------------|
|
| Gtr I
|                                               ~~~~~~~~~~~~~~~~~~~~
|-----------------------------------------|----------------------------------|
|-----17b21========(17)r==(17)-14---12h14p|=12-11---------(11)---12----------|
|-----------------------------------------|----------------------------------|
|-----------------------------------------|----------------------------------|
|-----------------------------------------|----------------------------------|
|-----------------------------------------|----------------------------------|
|
| Gtr IV
|-----------------------------------------|----------------------------------|
|-----------------------------------------|----------------------------------|
|-----------------------------------------|----------------------------------|
|-----------------------------------------|----------------------------------|
|-----------------------------------------|----------------------------------|
|-----------------------------------------|----------------------------------|


                                                       ~~
|---------------------------------------------------------------------------------------------------|
|---------------------------------------------------------------------------------------------------|
|---------------------------------------------------------------------------------------------------|
|--------------------------------------4----(4)----------------------------------------2h=====4-----|
|--------------------------------4---------------------------------2h=====4-------------------------|
|--2-----2--------2--------6---------------------------5--------------------------------------------|
|
|                                                                  \0.25/ \0.5/        \0.75/ \1/
|---------------------------------------------------------------------------------------------------|
|-14tr17---------14tr17---------------------14tr17----------------14tr17-14tr17-------14tr17-14tr17-|
|---------------------------------------------------------------------------------------------------|
|---------------------------------------------------------------------------------------------------|
|---------------------------------------------------------------------------------------------------|
|---------------------------------------------------------------------------------------------------|
|
|---------------------------------------------------------------------------------------------------|
|-14-------17-17p14----------14-17-17----14-17-----17p14-14----14-17---------------14-17p====14-----|
|-----------------------17------------17--------------------17-----------17-----17------------------|
|---------------------------------------------------------------------------------------------------|
|---------------------------------------------------------------------------------------------------|
|---------------------------------------------------------------------------------------------------|


                                                           E5
|---------------------------------------------------------------------|
|------------------------------------------------------------5--------|
|------------------------------------------------------------4--------|
|-------------------------------------------4-----(4)--------2--------|
|-------------------------------------4------------------2------------|
|--2------2------------2--------6-------------------------------------|
|
|  \1
|---------------------17b21----------------------(17)-----------------|
|-14tr17--------------------------------------------------------------|
|---------------14----------------------------------------------------|
|--------16-----------------------------------------------------------|
|---------------------------------------------------------------xsx\--|
|---------------------------------------------------------------xsx\--|
|
|------------------------------------------17b21r(17)b22---(17)-------|
|-17------------------17p===14h17p14h17p14----------------------------|
|-16b18r(16)p14-------------------------------------------------------|
|------------------16-------------------------------------------------|
|---------------------------------------------------------------xsx\--|
|---------------------------------------------------------------xsx\--|


  N.C.
                  ~
|-------------------------------|
|-------------------------------|
|-------------------------------|
|-----------4-(4)----------2h4--|
|---------4---------2h===4------|
|-2-2-2-6---------5-------------|
|
| ~
|-------------------------------|
|-------------------------------|
|-3-----------------------------|
|-------------------6b8======x--|
|-4-----------------------------|
|-2-----------------------------|
|
|-------------------------------|
|-------------------------------|
|-------------------------------|
|-------------------------------|
|-------------------------------|
|-------------------------------|


                    ~                                  ~
|---------------------------------|------------------------------|
|---------------------------------|------------------------------|
|---------------------------------|------------------------------|
|-------------4-(4)-----------2h4-|--------------4-(4)-------2h4-|
|----------4-------------2h=4-----|------------4---------2h4-----|
|-2-2-2-6-----------5-------------|-2----2-2-6---------5---------|
|
|                     ~~~~~~
|---------------------------------|------------------------------|
|---------------------------------|------------------------------|
|-------------------------------6-|-6tr8-------------------------|
|-6r======(6)---(6)s==9-(9)-------|------------------------------|
|---------------------------------|------------------------------|
|---------------------------------|------------------------------|


|--------------------------------------|
|--------------------------------------|
|--------------------------------------|
|--------------4---5------6-----7------|
|------------4-------------------------|
|-2----2-5-6------------------------6--|
|
|----------------x-9b12=====(9)r===(9)-|
|-9b11r======9p7-x---------------------|
|--------------------------------------|
|--------------------------------------|
|--------------------------------------|
|--------------------------------------|


|-----------------------------------------|
|-----------------------------------------|
|-----------------------------------------|
|-4-5------6------7------4----5--6--7--8--|
|-----------------------------------------|
|----------------------6---------------6--|
|
|-x-9b12=====(9)r-------------------------|
|-x-----------------x\---0tr4-------------|
|-------------------x\--------------------|
|-----------------------------------------|
|-----------------------------------------|
|-----------------------------------------|


                         E5
 2/4                    4/4
|----------------------|------------------------|
|----------------------|--9---------------------|
|----------------------|--9---------------------|
|--------9--10--11--13-|--9---------------------|
|----------------------|--7---------------------|
|--------7---8---9--11-|--0---------------------|
|
|----------------------|-14b16====(14)-(14)r----|
|-(0tr4)---------------|------------------------|
|----------------------|------------------------|
|----------------------|------------------------|
|----------------------|------------------------|
|----------------------|------------------------|


|------------|------------|--------||
|-(9)--------|-(9)--------|-(9)----||
|-(9)--------|-(9)--------|-(9)----||
|-(9)--------|-(9)--------|-(9)----||
|-(7)--------|-(7)--------|-(7)----||
|-(0)--------|-(0)--------|-(0)----||
|
|------------|------------|--------||
|------------|------------|--------||
|------------|------------|--------||
|------------|------------|--------||
|------------|------------|--------||
|------------|------------|--------||


    B  E/B   B    E5  B                             E/B   B
    Gtr II
||--------------|------------------------||------------------|
||o----5--5p=4--|--5p=4-(4)-------------o||---------5--5p=4--|
||--------------|--4--------4--4---------||---4-(4)-4--4--4--|
||--4--6--6p=4--|--6p=4-(4)-4--4---------||---4-(4)-6--6p=4--|
||o-------------|-----------------------o||------------------|
||--------------|------------------------||------------------|
|
||--------------|------------------------||------------------|
||o-------------|-----------------------o||------------------|
||--------------|---------------------4--||------------------|
||--------------|------------------------||------------------|
||o-2-----------|-(2)----2--------2-5---o||-2----------------|
||--------------|------------------------||------------------|


  E/B B
|----------------------------------|
|--5p=4-(4)------------------------|
|--4--------4---4------------------|
|--6p=4-(4)-4---4------------------|
|----------------------------------|
|----------------------------------|
|
|----------------------------------|
|----------------------------------|
|-----------------6-(6)-(6)b8rp4---|
|--------------------------------6-|
|-(2)----2----2-2------------------|
|----------------------------------|


          E/B   B    E/B B
|------------------|--------------------------|
|---------5--5p=4--|--5p=4-(4)----------------|
|---4-(4)-4--4--4--|--4--------4----4---------|
|---4-(4)-6--6p=4--|--6p=4-(4)-4----4---------|
|------------------|--------------------------|
|------------------|--------------------------|
|
|------------------|--------------------------|
|------------------|--------------------------|
|------------------|------------------------4-|
|------------------|--------------------------|
|-2----------------|-(2)----2----2-(2)--2-6---|
|------------------|--------------------------|


          E/B   B    E/B B
|------------------|--------------------------------|
|---------5--5p=4--|--5p=4-(4)----------------------|
|---4-(4)-4--4--4--|--4--------4----4---------------|
|---4-(4)-6--6p=4--|--6p=4-(4)-4----4---------------|
|------------------|--------------------------------|
|------------------|--------------------------------|
|
|------------------|--------------------------------|
|------------------|--------------------------------|
|------------------|--------------------4h6p4-------|
|------------------|--------------------------6p4p2-|
|-2----------------|-(2)----2----2-(2)--------------|
|------------------|--------------------------------|


          E/B   B    E/B B
|------------------|---------------------------|
|---------5--5p=4--|--5p=4-(4)-----------------|
|---4-(4)-4--4--4--|--4--------4----4----------|
|---4-(4)-6--6p=4--|--6p=4-(4)-4----4----------|
|------------------|---------------------------|
|------------------|---------------------------|
|
|------------------|---------------------------|
|------------------|---------------------------|
|------------------|------------------------4--|
|------------------|---------------------------|
|-2----------------|-(2)----2----2-(2)--2-6----|
|------------------|---------------------------|


          E/B   B    E/B B
|------------------|-------------------------------|
|---------5--5p=4--|--5p=4-(4)---------------------|
|---4-(4)-4--4--4--|--4--------4---4---------------|
|---4-(4)-6--6p=4--|--6p=4-(4)-4---4---------------|
|------------------|-------------------------------|
|------------------|-------------------------------|
|
|------------------|-------------------------------|
|------------------|-------------------------------|
|------------------|---------------------4---------|
|------------------|-------------------------------|
|-2----------------|-(2)----2----2-2h6p2---2h6p2---|
|------------------|-----------------------------5-|


          E/B   B    E/B B
|------------------|---------------------------|
|---------5--5p=4--|--5p=4-(4)-----------------|
|---4-(4)-4--4--4--|--4--------4----4----------|
|---4-(4)-6--6p=4--|--6p=4-(4)-4----4----------|
|------------------|---------------------------|
|------------------|---------------------------|
|
|------------------|---------------------------|
|------------------|---------------------------|
|------------------|------------------------4--|
|------------------|---------------------------|
|-2----------------|-(2)----2----2-(2)--2-6----|
|------------------|---------------------------|


          E/B   B    E/B B
|------------------|-----------------------------------|
|---------5--5p=4--|--5p=4-(4)-------------------------|
|---4-(4)-4--4--4--|--4--------4----4------------------|
|---4-(4)-6--6p=4--|--6p=4-(4)-4----4------------------|
|------------------|-----------------------------------|
|------------------|-----------------------------------|
|
|------------------|-----------------------------------|
|------------------|-----------------------------------|
|------------------|-------------------6-(6)b8-(6)-4---|
|------------------|---------------------------------6-|
|-2----------------|-(2)----2----2-(2)-----------------|
|------------------|-----------------------------------|


|----------------------|------------------------|
|----------------------|------------------------|
|---4-(4)-4---4--------|---4-(4)-4---4----------|
|---4-(4)-4---4--------|---4-(4)-4---4----------|
|----------------------|------------------------|
|----------------------|------------------------|
|
|----------------------|------------------------|
|----------------------|------------------------|
|--------------------4-|--------------------4---|
|----------------------|------------------------|
|-2----2----2-2--2h6---|-2----2----2-2--2h6-----|
|----------------------|------------------------|


|------------------------|-------------------------------------*|
|--------------5---------|-------------------------------------*|
|---4-(4)-4----4---------|---4-(4)-4---------------------------*|
|---4-(4)-4----6---------|---4-(4)-4---------------------------*|
|------------------------|-------------------------------------*|
|------------------------|-------------------------------------*|
|
|------------------------|-------------------------------------*|
|------------------------|-------------------------------------*|
|----------------------4-|-----------6b8r(6)p4---4-4h6-(6)p4p2-*|
|------------------------|---------------------6---------------*|
|-2----2----2-(2)--2h6---|-2----2------------------------------*|
|------------------------|-------------------------------------*|


Tablature Legend
----------------
 h   - hammer-on
 p   - pull-off
 b   - bend
 pb  - pre-bend
 r   - bend release (if no number after the r, then release immediately)
 /\  - slide into or out of (from/to "nowhere")
 s   - legato slide
 S   - shift slide
  - natural harmonic
[n]  - artificial harmonic
n(n) - tapped harmonic
 ~   - vibrato
 tr  - trill
 T   - tap
 TP  - trem. picking
 PM  - palm muting
\n/  - tremolo bar dip; n = amount to dip
 \n  - tremolo bar down
 n/  - tremolo bar up
/n\  - tremolo bar inverted dip
 =   - hold bend; also acts as connecting device for hammers/pulls
 <>  - volume swell (louder/softer)
 x   - on rhythm slash represents muted slash
 o   - on rhythm slash represents single note slash

Misc Legend
-----------
 |  - bar
||  - double bar
||o - repeat start
o|| - repeat end
*|  - double bar (ending)
 :  - bar (freetime)
 $  - Segno
 &  - Coda
Tempo markers -  = BPM(8/16=s8/s16), where s8 = swing 8ths, s16 = swing 16ths


***************************************************************************************
***************************************************************************************





Comments


Popular Boston tabs & chords
Don't Look Back Bass Tabs
Foreplay Long Time Bass Tabs
More Than A Feeling Bass Tabs
Amanda Tabs
Cool The Engines 2 Tabs
Don't Look Back 1 Tabs
Higher Power 1 Tabs
Tell Me Tabs
Hitch A Ride Ukulele
Used To Bad News Ukulele


Song lyrics



↑ Back to top | Tablatures and chords are parodies/interpretations of the original songs. You may use it for private study, scholarship, research or language learning purposes only
© 2014 AZChords.com Contact us | Privacy policy | DMCA | Add/correct tabs | Request tabs | Top 50 tabs