» » »

Bon Jovi, It's My Life Bass tabs (ver.4)

Artists:  A B C D E F G H I J K L M N O P Q R S T U V W X Y Z # 

It's My Life Bass tabs (ver.4)

Bon Jovi Tabs
Rating:
0/5 (0 votes)
It's My Life lessons Tabs too difficult? Try these video lessons and learn fast
                Order:Intro
      Verse
      Chorus
      Verse
      Chorus
      Solo
      Chorus
      Chorus 2

Intro

|----------------|----------------|----------------|----------------|
|----------------|------------3-5-|----------------|----------------|
|-3---3----------|----------6-----|-3---3----------|----------------|
|----------------|----------------|----------------|----------------|

Verse

|----------------|----------------|----------------|----------------|
|----------------|----------------|----------------|------------1---|
|-3--------------|----------------|-3---3----3-1-3-|-3---3--1-----3-| X3
|----------------|----------------|----------------|----------3-----|

|----------------|----------------|----------------|----------------|
|----------------|----------------|----------------|----------------|
|-3---3-------3--|-3----3-3-3--3--|-3---3--3-3--3--|-3---3--3-3-3-3-|
|----------------|----------------|----------------|----------------|

Chorus

|----------------|----------------|----------------|----------------|
|----------------|----------------|----------------|1-1-1-1-1---3-1-|
|-3---3----------|3-3-3-3-3-3-3---|--------3-1-3-1-|----------1-----|
|----------------|--------------3-|4-4-4-4---------|----------------|

|----------------|--------------0-|1-1-1-1-1-1-1-1-|----------------|
|0-0-0-0-0---3-1-|----------0-1---|----------------|----------------|
|----------1-----|3-3-3-3-3-------|----------------|1-1-1-1-1-1-1-1-|
|----------------|----------------|----------------|----------------|

|----------------|----------------|----------------|----------------|
|----------------|----------------|----------------|1-1-1-1-1-1-3-1-|
|1-1-1-1-2-2-2-2-|3-3-3-3-3-6-----|----------1-3-1-|----------------|
|----------------|------------1-3-|4-4-4-4-4-------|----------------|

|----------------|--------------0-|1-1-1-1---------|----------------|
|0-0-0-0-0-0-0---|----------0-1---|----------1-----|----------------|
|--------------1-|3-3-3-3-3-------|--------3---3-1-|1-1-1-1-1-1-1-1-|
|----------------|----------------|----------------|----------------|

|----------------|
|----------------|
|1-1-1-1-2-2-2-2-|
|----------------|

Solo

|----------------|----------------|----------------|----------------|
|----------------|----------------|----------------|----------------|
|----------------|----------------|1-1-1-1-1-1-1-1-|1-1-1-1-1-1-1-1-|
|4-4-4-4-4-4-4-4-|4-4-4-4-4-4-4-4-|----------------|----------------|

|----------------|----------------|----------------|----------------|
|----------------|----------------|----------------|----------------|
|3-3-3-3-3-3-3-3-|3-3-3-3-3-3-3-3-|----------------|----------------|
|----------------|----------------|1-1-1-1-1-1-1-1-|1-1-1-1-1-1-1-1-|

|----------------|----------------|----------------|----------------|
|----------------|----------------|----------------|----------------|
|-3--------------|----------------|----------------|----------------|
|----------------|----------------|----------------|----------------|

Chorus 2

|----------------|----------------|----------------|----------------|
|----------------|----------------|1-1-1-1-1-1---1-|0-0-0-0-0-0-0-0-|
|3-3-3-3-3-3-3---|--------3-1-3-1-|------------1---|----------------|
|--------------3-|4-4-4-4---------|----------------|----------------|

|--------------0-|1-1-1-1-1-1-1-1-|----------------|----------------|
|----------0-1---|----------------|----------------|----------------|
|3-3-3-3-3-------|----------------|1-1-1-1-1-1-1-1-|1-1-1-1-2-2-2-2-|
|----------------|----------------|----------------|----------------|

|----------------|----------------|----------------|----------------|
|----------------|----------------|1-1-1-1-1---3-1-|0-0-0-0-0-0-0---|
|3-3-3-3-3-6-----|----------1-3-1-|----------1-----|--------------1-|
|------------1-3-|4-4-4-4-4-------|----------------|----------------|

|----------------|----------------|----------------|----------------|
|--------------5-|6-6-6-----------|----------------|----------------|
|3-3-3-3-3-5-6---|------6---6-3---|----------------|----------------|
|----------------|--------4-----6-|6-6-6-6-6-6-6-6-|6-6-6-6-7-7-7-7-|
            
Submit corrections

comments powered by Disqus
↑ Back to top | Bon Jovi Bass for It's My Life. Lyrics for acoustic guitar and electric guitar. Tablatures and chords are parodies/interpretations of the original songs. You may use it for private study, scholarship, research or language learning purposes only