» » »

Bon Jovi, T.L.F.R. - Its My Life Bass tabs (ver.1)

Artists:  A B C D E F G H I J K L M N O P Q R S T U V W X Y Z # 

T.L.F.R. - Its My Life Bass tabs (ver.1)

Bon Jovi Tabs
 Rating:
4/5 (4 votes)
T.L.F.R. - Its My Life lessons Tabs too difficult? Try these video lessons and learn fast
1
                
(Tune half a step down Eb,Ab,DbGb)
(bass enters at 0:45)

Chorus
Gb:------------------------------------------------------------------|
Db:------------------------------------------------------------------|
Ab:-----------------1~~~~~~~------------------------4~~~~~~~----4~---|x1
Eb:-3~~~~~~~------------------------2~~~~~~~-------------------------|

Gb:------------------------------------------------------------------|
Db:------------------------------------------------------------------|
Ab:-3~~~~~~~--------1~~~~~~~-----------------------------------------|x1
Eb:-------------3~------------------2~~~~~~~--------4~~~~~~~---------|

Gb:------------------------------------------------------------------|
Db:------------------------------------------------------------------|
Ab:-1~~~----3~~~----4~~~~~~~------------------------1~~~~~~~---------|x1
Eb:---------------------------------2~~~~~~~----4~-------------------|

Gb:------------------------------------------------------------------|
Db:------------------------------------------------------------------|
Ab:-----------------4~~~~~~~----4~-----------------------------------|x1
Eb:---------4~~~--------------------2~~~~~~~--------4~~~~~~~---------|

Gb:------------------------------------------------------------------|
Db:------------------------------------------------------------------|
Ab:---------3~~~----1~~~~~~~-----------------------------------------|x1
Eb:-1~~~-------------------------------------------------------------|

Rest until 1:56

Repeat:
Chorus

Rest until 2:50

Repeat:
Chorus

Rest until 3:34

End Note
Gb:------------------|
Db:------------------|
Ab:-1~~~~~~~---------|x1
Eb:------------------|
            
Submit corrections

comments powered by Disqus
↑ Back to top | Bon Jovi Bass for T.L.F.R. - Its My Life. Lyrics for acoustic guitar and electric guitar. 1 Tablatures and chords are parodies/interpretations of the original songs. You may use it for private study, scholarship, research or language learning purposes only