» » »

Bon Jovi, It's My Life Bass tabs (ver.1)

Artists:  A B C D E F G H I J K L M N O P Q R S T U V W X Y Z # 

It's My Life Bass tabs (ver.1)

Bon Jovi Tabs
 Rating:
4/5 (4 votes)
It's My Life lessons Tabs too difficult? Try these video lessons and learn fast
                Intro x2

G|-------0|1~--0~--|
D|------1-|--------|
A|3-3--3--|--------|
E|--------|--------|

Verse x1

G|--------|--------|--------|1~--0~--|
D|--------|--------|--------|--------|
A|3-------|--------|3-3---3-|--------|
E|--------|--------|--------|--------|

G|--------|--------|--------|1~--0~--|
D|--------|--------|--------|--------|
A|3-3-----|--------|3-3---3-|--------|
E|--------|--------|--------|--------|

G|--------|--------|--------|--------|
D|--------|--------|33333333|33333333|
A|33333333|33333333|--------|--------|
E|--------|--------|--------|--------|

G|--------|
D|--------|
A|3-3-----|
E|--------|

Chorus x2

G|--------|11111111|--------|--------|
D|--------|--------|11111111|--------|
A|33333333|--------|--------|11111111|
E|--------|--------|--------|--------|

G|--------|11111111|--------|--------|
D|--------|--------|--------|--------|
A|33333333|--------|11111111|11112222|
E|--------|--------|--------|--------|

Intro x2

G|-------0|1~--0~--|
D|------1-|--------|
A|3-3--3--|--------|
E|--------|--------|

Verse x1

G|--------|--------|--------|1~--0~--|
D|--------|--------|--------|--------|
A|3-------|--------|3-3---3-|--------|
E|--------|--------|--------|--------|

G|--------|--------|--------|1~--0~--|
D|--------|--------|--------|--------|
A|3-3-----|--------|3-3---3-|--------|
E|--------|--------|--------|--------|

G|--------|--------|--------|--------|
D|--------|--------|33333333|33333333|
A|33333333|33333333|--------|--------|
E|--------|--------|--------|--------|

G|--------|
D|--------|
A|3-3-----|
E|--------|

Chorus x2

G|--------|11111111|--------|--------|
D|--------|--------|11111111|--------|
A|33333333|--------|--------|11111111|
E|--------|--------|--------|--------|

G|--------|11111111|--------|--------|
D|--------|--------|--------|--------|
A|33333333|--------|11111111|11112222|
E|--------|--------|--------|--------|

Bridge x1 [Guitar Solo]

G|11111111|11111111|--------|--------|
D|--------|--------|--------|--------|
A|--------|--------|11111111|11111111|
E|--------|--------|--------|--------|

G|--------|--------|--------|--------|
D|--------|--------|33333333|33333333|
A|33333333|33333333|--------|--------|
E|--------|--------|--------|--------|

G|--------|--------|--------|--------|
D|--------|--------|--------|--------|
A|3~------|--------|--------|--------|
E|--------|--------|--------|--------|

G|--------|
D|--------|
A|3-3-----|
E|--------|

Chorus x4

G|--------|11111111|--------|--------|
D|--------|--------|11111111|--------|
A|33333333|--------|--------|11111111|
E|--------|--------|--------|--------|

G|--------|11111111|--------|--------|
D|--------|--------|--------|--------|
A|33333333|--------|11111111|11112222|
E|--------|--------|--------|--------|

	
            
Submit corrections

comments powered by Disqus
↑ Back to top | Bon Jovi Bass for It's My Life. Lyrics for acoustic guitar and electric guitar. Tablatures and chords are parodies/interpretations of the original songs. You may use it for private study, scholarship, research or language learning purposes only