>
 >
Bed Of Roses

Bed Of Roses Guitar Tabs

Bon Jovi - Bed Of Roses chords, tabs, tablatures, lyrics

Guitar lessons | Add/correct | Request | Top 50 tabs Artists:  A B C D E F G H I J K L M N O P Q R S T U V W X Y Z 0-9

Bed Of Roses Guitar Tabs – Bon Jovi

CD, Sheet music, Poster

Do you like Bed Of Roses? Share with your friends now
Bass TabsChordsChords v2Chords v3Chords v4Chords v5Chords v6Chords v7TabsTabs v2Tabs v3UkuleleUkulele v2
Bon Jovi, Bed of roses.
  
BON JOVI TAB
BED OF ROSES
KEEP THE FAITH (1992)
Posted by Luc Bien


Key:
---

 ^   = hammer/pull
 /   = slide
(b)n = bend to fret n
 ~   = vibrato
 \/  = push whammy to lower note a semitone, then release (done quickly) 
( )  = implied notes - optional 


Note:  This was transcribed from the MTV "plugged" version so it may be
       different from the recorded version.  I've done the intro and the
       solo, but none of the riffs during the verses.  


CHORDS:
   EADGBe
Am *02210
Bb 113331
C  *32010 
Dm *00231 or better: 557765
F  133211 

Keyboard arranged for guitar:
----------------------------

E --------------------------------------------------------------------------
B --8--------8--------8--------8--------8--------8--------8--------8--------
G ----10-------10-------10-------10-------10-------10-------10-------10-----
D -------12-------12-------12-------12-------10-------10-------10-------10--
A --------------------------------------------------------------------------
E --------------------------------------------------------------------------


Rhythm fig #1:     Rhythm fig #2:     Rhythm fig #3:

E ---------------  -----------------  --------------------------------------
B ---------------  -----------------  --------------------------------------
G ---------------  -----------------  --------------------------------------
D -----------(5)-  -----------------  --------------------------------------
A -----------(3)-  ---------3-------  --------------------------------------
E --1~--1-3-1-0--  --1~-1-5---1~----  --1~--3(b)5-3(b)5-3(b)5-3-1~----------
                                                   
--- 

Intro:  (with keyboard part played over top)
-----

   rake                               rake
E ---10-12-(b)13-12-10------------------10-12-(b)13-12-10-------------------
B --10-------------------10^13^10------10-----------------13(b)15--10^13----
G -10---------------------------------10------------------------------------
D --------------------------------------------------------------------------
A --------------------------------------------------------------------------
E --------------------------------------------------------------------------

   rake
E ---10-12-(b)13-12-10-----------------------10-12-(b)13-12-10--------------
B --10------------------13(b)15--13^15------10-----------------13(b)15--10^13
G -10---------------------------------14---10-------------------------------
D --------------------------------------------------------------------------
A --------------------------------------------------------------------------
E --------------------------------------------------------------------------


Verse 1:  (Keyboard part played over the top)
-------

Bb                                            F
Sitting here wasted and wounded with this old piano.

       Bb                                         F
Trying hard to capture the moment, this morning I don't know.

         Am                    Bb                       F
'cause a bottle of vodka still lies in my head and some blonde

                                                   Bb
gave me nightmares, I think that she's still in my bed.

     Bb                      C                         F
As I think about movies they won't make of me when I'm dead.

        Bb                                          F
With an iron-clad fist I wake up to french-kiss the morning.

        Bb                                                        F
While a marching band keeps it's own beat in my head while we're talking

      Am                  Bb                       F         
about all of the things I longed to believe, about love, the truth,

                            Bb
what you mean to me and the truth is...

Bb          C          (rhythm fig #1)
Baby you're all that I need.


Chorus:
------

        Dm      C         Bb     F   (rhythm fig #3)
I wanna lay you down in a bed of roses.

Dm        C          Bb     F    (rhythm fig #2)
Tonight I sleep on a bed of nails.

        Bb         F            Bb   F
I wanna be just as close as the Holy Ghost is.

Dm  C   Bb                F
Lay you down, on a bed of roses.


Verse #2:

I'm so far away, each step that I take's on my way home.
A king's ransom in dimes I'd give each night to see through this payphone.
But I'd run out of time or it's hard to get through till the bird on the wire
flies me back to you. I'll just close my eyes. 
And whisper "baby it probably is true".

Bridge:
------

    Bb                  C
The hotel bars hangover whiskey's gone dry.

       F                
The bartender's wig's crooked, she's giving me the eye.

  Bb                       Bb              C         F  (rhythm fig. #1)
I might've said yes, but I laughed so hard I think I died.


Solo:
----
   
E ---------------------------------------------10---------------------------
B ------------------------------------------------13^10-13(b)15~-13(b)15--13
G --------------------------------------------------------------------------
D ---------3-5-5(b)7-5(b)7~-3^5---------------------------------------------
A --5-3-5~----------------------3~--3^5-------------------------------------
E --------------------------------------/5~---------------------------------

                    
                  |<- I made this up because it's |
                  |   hard to transcribe   |
                  |   from videotape !          ->|  

E --13(b)15--13~--13-10----10-----------------------------------13-15-(b)17~
B ----------------------13----13-10---10-13-13(b)15~------15-17-------------
G ----------------------------------9------------------/14------------------
D --------------------------------------------------------------------------
A --------------- triplet  triplet  triplet --------------------------------
E --------------------------------------------------------------------------

                                              rake
E --15-13-17(b)18--17--13^15--------------------10-12-(b)13-12-(b)12\/~-----
B ---------------------------13~--13^15--------10---------------------------
G --------------------------------------14~---10----------------------------
D --------------------------------------------------------------------------
A --------------------------------------------------------------------------


Verse 3:
-------

Now as you close your eyes you know I'll be thinking about you.
My mistress she calls me to stand in her spotlight again.
I won't be alone, you know that don't mean I'm not lonely.
I've got nothing to prove, for its you I'd die to defend.

---

It took me a very long time to find this out and to transcribe it but I hope you like the results so good luck,
Luc Bien


 

 





Comments


Popular Bon Jovi tabs & chords
One Step Closer Bass Tabs
Seat Next To You 1 Chords
Wedding Day Chords
Always (Solo) Tabs
Dry County Tabs
Joey 1 Tabs
Summertime Tabs
No Regrets Ukulele
Novocaine Ukulele
Someday Ill Be Saturday Night Ukulele


Song lyrics



↑ Back to top | Tablatures and chords are parodies/interpretations of the original songs. You may use it for private study, scholarship, research or language learning purposes only
© 2014 AZChords.com Contact us | Privacy policy | DMCA | Add/correct tabs | Request tabs | Top 50 tabs