» » »

Bon Jovi, It's My Life Tabs (ver.3)

Artists:  A B C D E F G H I J K L M N O P Q R S T U V W X Y Z # 

It's My Life Tabs (ver.3)

Bon Jovi Tabs
Rating:
0/5 (0 votes)
Hard to play? Try these video lessons and learn fast.
                Its My Life
 by
Bon Jovi


Tuning:
Guitar:   standard (EADGBe)
Keyboard: standard (EADGBe)

Chords Used:
    EADGBe
C5  3355xx
G#5 4665xx
Eb5 6688xx
Bb5 6887xx

Art:
Palm Mute: m
Hammer On: h
Pull Off : p
Slide    : s

All riffs are played by guitar
Riff A:
e-|----------------------|
B-|----------------------|
G-|--3ssssssssssssssss8--|
D-|----------------------|
A-|----------------------|
E-|----------------------|

Riff B:
e-|--------------|
B-|--------------|
G-|--7------4-5--|
D-|--8-8v-8---5--|
A-|--8--------3--|
E-|--6--------3--|

Intro: w/ talk box
    C5 C5 m                  C5 C5 m Riff A
e-|-----------------4---3--|-----------------4---3--|
B-|-------------4-6--------|-------------4-6--------|
G-|---------5-3------------|---------5-3------------|
D-|------------------------|------------------------|
A-|------------------------|------------------------|
E-|------------------------|------------------------|

Verse: w/ talk box
     C5 C5 m                                         C5 C5 Bb5 Bb5 C5 
e-|-----------------------------------------------------------------------------|
B-|-----------------------------------------------------------------------------|
G-|-------------------------------------------------------------------1---0-----|
D-|-----------------------------------------------------------------------------|
A-|-----------------------------------------------------------------------------|
E-|-----------------------------------------------------------------------------|
             This aint a song for the broken hearted
             No silent prayer for the faith departed

     C5 C5                                   C5 C5 m
e-|-----------------------------------------------------------------------------------------|     |
B-|--1----4----1----4----1----4----1----4----1----4----1----4----1----4----1----4-----------|     |
G-|-----------------------------------------------------------------------------------------|drums|
D-|-----------------------------------------------------------------------------------------|drums|
A-|-----------------------------------------------------------------------------------------|     |
E-|-----------------------------------------------------------------------------------------|     |
     N i aint gonna be.......................hear my voice when i shout it out loud

Chorus:
       C5         G#5
Its My Life n its now or never
Eb5              Bb5    
But i aint gonna live forever
C5           G#5           Bb5
I just wanna live while im alive
Riff B 
Its my life

Solo: w/ talk box
     C5                            G#5                                         Eb5                    Bb5         C5
e-|----------------------------------------------------------------------------1s3-1h3-1h3-1h3-p1---1----------------|
B-|-----------------------------------------------------------------------------------------------4---1-1-------4-1--|
G-|-------------------------------------------------------------------------------------------------------3-3-0------|
D-|------------------------------------------------------------------------1-3---------------------------------------|
A-|--5h6p5h6p5h6p5h6p5h6p5h6p5h6p5h6p5h6p5h6p5h6p5h6p5h6p5h6p5h6p5h6p5-3-1-------------------------------------------|
E-|------------------------------------------------------------------------------------------------------------------|
            

comments powered by Disqus
↑ Back to top | Bon Jovi Tabs for It's My Life. Lyrics for acoustic guitar and electric guitar. Tablatures and chords are parodies/interpretations of the original songs. You may use it for private study, scholarship, research or language learning purposes only