» » »

Blur, Ambulance Bass tabs (ver.2)

Artists:  A B C D E F G H I J K L M N O P Q R S T U V W X Y Z # 

Ambulance Bass tabs (ver.2)

Blur Tabs
Rating:
1/5 (1 vote)
Hard to play? Try these video lessons and learn fast.
                SONG  : Ambulance
ALBUM : Think Tank

MAIN RIFF
  G|------------------------------------------------------------------|
  D|------------------------------------------------------------------|
  A|------------------------------------------------------------------|
  E|--6-6-6-6-6-6-6--0/6-6-6-6-6-4-4--9-9-9-9-9-9-9-9--0/9-9-9-9-9-4--|


  OUTRO                    (X3)|
  G|---------------------------|----------------------------|
  D|---------------------------|----------------------------|
  A|--0--3--5--3----------0----|--0--3--5--3------3-3-5-----|
  E|------------------3-3------|----------------------------|

  LAST RIFF
  G|---------------------------------|
  D|---------------------------------|
  A|--0--3--5--3-------3-3-5--3--0---|
  E|---------------------------------|
            

comments powered by Disqus
↑ Back to top | Blur Bass for Ambulance. Lyrics for acoustic guitar and electric guitar. Tablatures and chords are parodies/interpretations of the original songs. You may use it for private study, scholarship, research or language learning purposes only