» » »

Blur, Ambulance Tabs (ver.1)

Artists:  A B C D E F G H I J K L M N O P Q R S T U V W X Y Z # 

Ambulance Tabs (ver.1)

Blur Tabs
 Rating:
4/5 (4 votes)
Ambulance lessons Tabs too difficult? Try these video lessons and learn fast
                The whole song goes without guitar until the very end which 
quietly plays this:

e/----4-6-8-4-6----4-6-4-8-4-6-6---- 
B/--6------------------------------- 
G/---------------------------------- 
D/---------------------------------- 
A/---------------------------------- 
E/---------------------------------- 

e/----4------------9/8-9-8-6--- 
B/--6---6-4-6-6---------------- 
G/----------------------------- 
D/----------------------------- 
A/----------------------------- 
E/----------------------------- 

e/----8/9\8-6----------
B/--6---------6--------
G/---------------------
D/---------------------
A/--------------------- 
E/---------------------
            
Submit corrections

comments powered by Disqus
↑ Back to top | Blur Tabs for Ambulance. Lyrics for acoustic guitar and electric guitar. Tablatures and chords are parodies/interpretations of the original songs. You may use it for private study, scholarship, research or language learning purposes only