» » »

Ambulance Bass tabs (ver.1)

Artists:  A B C D E F G H I J K L M N O P Q R S T U V W X Y Z # 

Ambulance Bass tabs (ver.1)

Blur
Rating:
0/5 (0 votes)
Tabs too difficult? Try these video lessons and learn fast.
                -------------------------------------------------------------------------------
-------------------------------------------------------------------------------


Tuning: Standard

MAIN RIFF:
G|-------------------|
D|-------------------|
A|-------------------| x2 
E|-1/6-6-6-6-6-4-1-1-|

G|-------------------|
D|-------------------|
A|-------------------| x2
E|-4/9-9-9-9-9-8-4-4-|

CHORUS:
G|---------------------------------------------|
D|---------------------------------------------|
A|---------------------------------------------|
E|-6----6---6----6--4/9---9---9----9--8\4--4/6-|

MAIN RIFF

OUTRO:
G|----------------------|
D|----------------------|
A|----4--6--4-----------|
E|-6-------------4--4-6-|

ENDING:
G|---------------6--6-8-----|
D|-----------------------8\-|
A|----4--6--4---------------|
E|-6------------------------|

| /  slide up
| \  slide down
===============================================================================
            
Tabs too difficult? Try these video lessons and learn fast.


comments powered by Disqus
↑ Back to top | Tablatures and chords are parodies/interpretations of the original songs. You may use it for private study, scholarship, research or language learning purposes only