» » »

Blur, The Universal Tabs (ver.1)

Artists:  A B C D E F G H I J K L M N O P Q R S T U V W X Y Z # 

The Universal Tabs (ver.1)

Blur Tabs
 Rating:
4/5 (4 votes)
The Universal lessons Tabs too difficult? Try these video lessons and learn fast
                Blur - "The Universal"
Words & Music By : Damon Albarn, Graham Coxon, Alex James & David Rowntree
--------------------------------------------
10.5.1999 V1.0

Note:
----
Everytime when A & C#m are played,in the verses, do this:
    A        C#m       
e-|-------5-------4-----|
B-|-------5-------5-----|
G-|-------6---4h6-6-----|
D-|---------------------|
A-|--0------------------|
E-|---------------------|

and everytime when E & Bm are played, in the verses, do this:
    E         Bm
e-|-------4-------2-----|
B-|-------5-------3-----|
G-|-------4---2h4-4-----|
D-|---------------------|
A-|---------------------|
E-|-0-------------------|

Intro:
-----
Am6/C
A   C#m,  A   C#m    X3 

Verse1:
------
A      C#m      A             C#m       A      C#m                             
           this is the next cent'ry                ......

A      C#m       E           Bm         E           Bm
        
A              C#m       A   C#m       A           C#m
Every night ......
A      C#m          E        Bm         E            Bm
         how we .......

Chorus: (just strum the chords)
------
        Asus4                            D
   It really, really, really, could happen,
        Asus4                            D
yes it really, really,really, could happen.
             C#m
When the days   the seem to fall through you,

    D           D/C#         Bm       E
   just____    let them   go___
e-|(fill1)------------------|
B-|-------------------------|
G-|--------3-------------3--|
D-|----2---2-------------2--|
A-|-0---------0-------------|
E-|--------------4----------|

Little trumpet solo: (I have the solo in tab format if anyone is intrested)
-------------------
A    C#m  X3

Verse2: (same as verse1)
------

[Repeat Chorus Twice and then repeat chorus
without words, except some backing vocals
on the "Let them go"]

Outro:
-----
    Bm              E                              A
e-|---------------|-0-----------|----------------|-0-----------|
B-|----3----------|-0-----------|----------------|-2-----------|
G-|----4---4---1--|-1-----------|----------------|-2-----------|
D-|----4----------|-2------0----|-------------1--|-2-----------|
A-|-2--2----------|-2-----------|--4------2------|-0-----------|
E-|---------------|-0-----------|----------------|-------------|
            
Submit corrections

comments powered by Disqus
↑ Back to top | Blur Tabs for The Universal. Lyrics for acoustic guitar and electric guitar. Tablatures and chords are parodies/interpretations of the original songs. You may use it for private study, scholarship, research or language learning purposes only