» » »

Country Song Tabs (ver.3)

Artists:  A B C D E F G H I J K L M N O P Q R S T U V W X Y Z # 

Country Song Tabs (ver.3)

*Blink 182*
Rating:
0/5 (0 votes)

Hard to play? Try these video lessons and learn fast.
                so i tabbed it out for you people who wanna play it right
so here it is.

bass intro...
---------------------
---------------------
-3-3-3-3-0-2---------
--3-3-3-3------------
guitar part...

---------------------
----------1----------
----------0----------
-------2--2---------
-0-2-3----3---------
--------------------
and you just gotta listen to it for
the srumming but its pretty easy to figure out so
comment me on it. i take requests!
            
Hard to play? Try these video lessons and learn fast. | Correct




comments powered by Disqus
↑ Back to top | Tablatures and chords are parodies/interpretations of the original songs. You may use it for private study, scholarship, research or language learning purposes only