» » »

Country Song Bass tabs (ver.1)

Artists:  A B C D E F G H I J K L M N O P Q R S T U V W X Y Z # 

Country Song Bass tabs (ver.1)

*Blink 182*
Rating:
0/5 (0 votes)

Hard to play? Try these video lessons and learn fast.
                (1)
COUNTRY SONG ENJOY


LISTEN TO CD TO SEE HOW MANY TIMES TO PLAY
  ]---------------------[
  ]-3-3-3-3--0-2-3------[
  ]--3-3-3-3------------[  
  ]---------------------[

THEN PLAY THIS (also listen to cd for how many times)
  ]---------------------------[
  ]-33--33--33--3--0-2-3------[
  ]---33--33--33-3------------[
  ]---------------------------[
            
Hard to play? Try these video lessons and learn fast. | Correct




comments powered by Disqus
↑ Back to top | Tablatures and chords are parodies/interpretations of the original songs. You may use it for private study, scholarship, research or language learning purposes only