» » »

Country Song Bass tabs (ver.2)

Artists:  A B C D E F G H I J K L M N O P Q R S T U V W X Y Z # 

Country Song Bass tabs (ver.2)

*Blink 182*
Rating:
0/5 (0 votes)

Hard to play? Try these video lessons and learn fast.
                (2)
Riff 1
G|----------------------|
D|----------------------|
A|--3--3--3--3--3-0-2-3-|
E|-3--3--3--3--3-3------|
Riff 2
G|------------------------------------|
D|------------------------------------|
A|-----33-----33-----33----33----0-2-3|
E|-33-----33-----33-----33-----3------|

Then go back to the beginning and start over.
Or just play Riff 1 over and over, it's more fun that way.
            
Hard to play? Try these video lessons and learn fast. | Correct




comments powered by Disqus
↑ Back to top | Tablatures and chords are parodies/interpretations of the original songs. You may use it for private study, scholarship, research or language learning purposes only