>
 >
Story Of A Lonely Guy 1

Story Of A Lonely Guy 1 Guitar Tabs

*Blink 182* - Story Of A Lonely Guy 1 chords, tabs, tablatures, lyrics

Guitar lessons | Add/correct | Request | Top 50 tabs Artists:  A B C D E F G H I J K L M N O P Q R S T U V W X Y Z 0-9

Story Of A Lonely Guy 1 Guitar Tabs – *Blink 182*

CD, Sheet music, Poster

Do you like Story Of A Lonely Guy 1? Share with your friends now
ChordsTabsTabs v2Tabs v3
_____________________________________________________

_____________________________________________________
ps copy to notepad and ALWAYS use (ANDALE MONO)font





    + BLINK 182---------------STORY OF A LONELY GUY +


               *****INTRO*****
*I*  E--------------------------------------------------
*N*  B--------------------------------------------------
*T*  G--------------------------------------------------
*R*  D------7----9-------------7-----9-----7------------ x2
*O*  A---7-----------------7----------------------------
     E--------------------------------------------------



                ****VERSE****
E--------------------------------------------------
B--------------------------------------------------
G--------------------------------------------------
D---7-7-7-7--9-9-9-9--11-11-11-11--12-12-12-12----- x4
A---7-7-7-7--9-9-9-9--11-11-11-11--12-12-12-12-----
E---5-5-5-5--7-7-7-7---9--9--9--9--10-10-10-10-----
      (A)      (B)       (C#)         (D)

[1] Push it out...Fake a smile
    Avert disaster just in time
    I need a drink
    Cause in a while
    Worthless answers from
    Friends of mine
    Its dumb to ask
    Cool to ignore
    Girls posess me but
    Theyre never mine
    I made my entrance
    Avoided hazards
    Checked my engine 
    I fell behind

      DA da da....i fell behind


          *****BRIDGE*****  (DA DA DAAAAA!!)
E--------------------------------------------------
B--------------------------------------------------
G--------------------------------------------------
D---7---------7-----7-------7-------7--------7-----
A---7----4-4----4-4----5-5-----5-5-----------------
E---5-----------------------------------5-5--------


[2] Remember when.....I was in 
    the grocery store....nows my time
    Lost the words..Lost the nerve
    Lost the girl...Left the line
    I would wish..upon a star
    But that satar..It doesnt shine
    So read my book..with the boring ending
    A short story of a lonely guy
  



*******************chorus****************************
E-------------------------------------------------- *
B-------------------------------------------------- *
G-------------9-9-9-9-------------7-7-7-7---------- *
D---7-7-7-7---9-9-9-9---4-4-4-4---7-7-7-7---------- *
A---7-7-7-7---7-7-7-7---4-4-4-4---5-5-5-5---------- *
E---5-5-5-5-------------2-2-2-2-------------------- *
     (A)        (E)      (F#)       (D)             *
                                                    *
                    CHORUS                          *
She makes me feel like its raining outside          *
And when the storms gone Im all torn up inside      *
Im always nervous on days like this like the prom   *
I get too scared to move cos im a fucking boy       *
***************************************************** 



            *****SOLO GRUNGE MIX*****
E--------------------------------------------------
B-------------------------------------------------
G----------------------------------9-9-9-9-9-------
D-------7-----7-------7-------7----9-9-9-9-9-------X2
A--4-4----4-4----5-5-----5-5-------7-7-7-7-7-------
E-------------------------------------------------
                                      (E)

E--------------------------------------------------
B--------------------------------------------------
G--------------------------------------------------
D-------7-----7----7-----7-------7-----7-----------x2
A---4-4---4-4---5-5---5-5-----7-7---7-7------------
E--------------------------------------------------

____________________________
June 10th 2001              |
(Kev 16 Male) IRISH         |
My tabs are always right    |
____________________________|
...songs taken from blink 182 Take Off Your Pants And Jacket





Comments


Popular *Blink 182* tabs & chords
Carousel 7 Bass Tabs
Baby One More Time Chords
First Date Chords
Always Drum Tabs
Always 2 Tabs
Dammit 7 Tabs
Dogs Eating Dogs 1 Tabs
Down Live Tabs
M And M S Tabs
Violence 1 Tabs


Song lyrics



↑ Back to top | Tablatures and chords are parodies/interpretations of the original songs. You may use it for private study, scholarship, research or language learning purposes only
© 2014 AZChords.com Contact us | Privacy policy | DMCA | Add/correct tabs | Request tabs | Top 50 tabs