» » »

Story Of A Lonely Guy Bass tabs (ver.1)

Artists:  A B C D E F G H I J K L M N O P Q R S T U V W X Y Z # 

Story Of A Lonely Guy Bass tabs (ver.1)

*Blink 182*
Rating:
0/5 (0 votes)

Hard to play? Try these video lessons and learn fast.
                Verse:
G|------------------------------------------|
D|------0--------------------------00000000-|
A|-0-2-4---000000002222222244444444---------|
E|------------------------------------------|

Pre-chorus:	x2
G|----------------------------------|
D|---------00000000-----------------|
A|-44444444--------00000000---------|
E|-------------------------00000000-|

Chorus:
G|------------------------------------------------------------------|
D|-------------------------00000000------------------------00000000-|
A|-00000000--------44444444--------00000000--------44444444---------|
E|---------00000000------------------------00000000-----------------|

Bridge:
G|----------------------------------------------------|
D|--0-2222222222222222-0-22222222222222222-0-2---0-2--|
A|-4------------------4-------------------4---0-4---0-|
E|----------------------------------------------------|

Ending:
G----------|
D-0-0------|
A--4-4-0>>-|
E----------|
            
Hard to play? Try these video lessons and learn fast. | Correct




comments powered by Disqus
↑ Back to top | Tablatures and chords are parodies/interpretations of the original songs. You may use it for private study, scholarship, research or language learning purposes only