>
 >
Story Of A Lonely Guy 2

Story Of A Lonely Guy 2 Guitar Tabs

*Blink 182* - Story Of A Lonely Guy 2 chords, tabs, tablatures, lyrics

Guitar lessons | Add/correct | Request | Top 50 tabs Artists:  A B C D E F G H I J K L M N O P Q R S T U V W X Y Z 0-9

Story Of A Lonely Guy 2 Guitar Tabs – *Blink 182*

CD, Sheet music, Poster

Do you like Story Of A Lonely Guy 2? Share with your friends now
ChordsTabsTabs v2Tabs v3
Intro     
E---------5---7----------5---7---5---------------------
B--5---5----------5---5--------------------------------
G------------------------------------------------------
D------------------------------------------------------
A------------------------------------------------------
E------------------------------------------------------  
   
   Verse (3x)
E------------------------------------------------------
B------------------------------------------------------
G------------------------------------------------------
D---------------4--4--4--4---6--6--6--6---7--7--7--7---
A--7--7--7--7---2--2--2--2---4--4--4--4---5--5--5--5---
E--5--5--5--5------------------------------------------
  push it out, fake a smile, avert disaster just in time...
    
    
    Interlude
E------------------------------------------------------
B------------------------------------------------------
G------------------------------------------------------
D--------7-----------7---------7-----------7-----------
A--4--4-----4--4--4------5--5-----5--5--5--------------
E------------------------------------------------------

E------------------------------------------------------
B------------------------------------------------------
G------------------------------------------------------
D--------7-----------7---------7-----------7-----------
A--7--7-----7--7--7------5--5-----5--5--5--------------
E------------------------------------------------------

E------------------------------------------------------
B------------------------------------------------------
G------------------------------------------------------
D--------7-----------7---------7-----------7-----------
A--4--4-----4--4--4------5--5-----5--5--5--------------
E------------------------------------------------------

E------------------------------------------------------
B------------------------------------------------------
G------------------------------------------------------
D--------9-----------9---------7-----------7-----------
A--7--7-----7--7--7------5--5-----5--5--5--------------
E------------------------------------------------------

   
				Chorus (3x)                                                        
E-----------------------------------
B-----------------------------------
G----------9---------------7--------
D--7-------9-(8x)--4-------7-(8x)---
A--7-(8x)--7-------4-(8x)--5--------
E--5---------------2----------------
  She makes me feel like it's raining outside...

    
    Intro   
E---------5---7----------5---7---5---------------------
B-----5--------------5---------------------------------
G------------------------------------------------------
D------------------------------------------------------
A------------------------------------------------------  
E------------------------------------------------------ 
    
    Verse (3x)
E------------------------------------------------------
B------------------------------------------------------
G------------------------------------------------------
D---------------4--4--4--4---6--6--6--6---7--7--7--7---
A--7--7--7--7---2--2--2--2---4--4--4--4---5--5--5--5---
E--5--5--5--5------------------------------------------
  remember when, I was in, the grocery store, now's my time...
    
    
   Interlude
E------------------------------------------------------
B------------------------------------------------------
G------------------------------------------------------
D--------7-----------7---------7-----------7-----------
A--4--4-----4--4--4------5--5-----5--5--5--------------
E------------------------------------------------------

E------------------------------------------------------
B------------------------------------------------------
G------------------------------------------------------
D--------7-----------7---------7-----------7-----------
A--7--7-----7--7--7------5--5-----5--5--5--------------
E------------------------------------------------------

E------------------------------------------------------
B------------------------------------------------------
G------------------------------------------------------
D--------7-----------7---------7-----------7-----------
A--4--4-----4--4--4------5--5-----5--5--5--------------
E------------------------------------------------------

E------------------------------------------------------
B------------------------------------------------------
G------------------------------------------------------
D--------9-----------9---------7-----------7-----------
A--7--7-----7--7--7------5--5-----5--5--5--------------
E------------------------------------------------------
    
   	
    Chorus (3x)                                                        
E-----------------------------------
B-----------------------------------
G----------9---------------7--------
D--7-------9-(8x)--4-------7-(8x)---
A--7-(8x)--7-------4-(8x)--5--------
E--5---------------2----------------
  She makes me feel like it's raining outside...

   
   Interlude (2x)
E------------------------------------------------------
B------------------------------------------------------
G----------------------------------------------9-------
D--------7-----------7---------7-----------7---9-(8x)--
A--4--4-----4--4--4------5--5-----5--5--5------7------- 
E------------------------------------------------------
 
   Interlude #2
E------------------------------------------------------
B------------------------------------------------------
G------------------------------------------------------
D--------7-----------7---------7-----------7-----------
A--4--4-----4--4--4------5--5-----5--5--5--------------
E------------------------------------------------------

E------------------------------------------------------
B------------------------------------------------------
G------------------------------------------------------
D--------7-----------7---------7-----------7-----------
A--7--7-----7--7--7------5--5-----5--5--5--------------
E------------------------------------------------------

E------------------------------------------------------
B------------------------------------------------------
G------------------------------------------------------
D--------9-----------9---------7-----------7-----------
A--7--7-----7--7--7------5--5-----5--5--5-------------- 
E------------------------------------------------------

E-----------------------
B-----------------------
G-----------------------
D--------9-----------9--
A--7--7-----7--7--7-----
E-----------------------

   
   Chorus (3x)                                                        
E-----------------------------------
B-----------------------------------
G----------9---------------7--------
D--7-------9-(8x)--4-------7-(8x)---
A--7-(8x)--7-------4-(8x)--5--------
E--5---------------2----------------
  She makes me feel like it's raining outside...

   (Let Ring)
E--------------
B--------------
G--------------
D------7-------  
A------7-------
E------5-------

***** `&' *********************************************
**     #                                             **
**     #     Any corrections, questions, comments,   **
**    _#_    etc. welcome!                           **
**   ( # )                                           **
**** `---' ********************************************





Comments


Popular *Blink 182* tabs & chords
1st Date 2 Bass Tabs
Anthem Part Two Bass Tabs
Blow Job 1 Chords
Dammit 4 Chords
Dammit Drum Tabs
Adams Song 10 Tabs
Cacophony 3 Tabs
Cacophony 4 Tabs
Dammit 14 Tabs
Going Away To College Tabs


Song lyrics



↑ Back to top | Tablatures and chords are parodies/interpretations of the original songs. You may use it for private study, scholarship, research or language learning purposes only
© 2014 AZChords.com Contact us | Privacy policy | DMCA | Add/correct tabs | Request tabs | Top 50 tabs