» » »

*Blink 182*, Peggy Sue Tabs (ver.3)

Artists:  A B C D E F G H I J K L M N O P Q R S T U V W X Y Z # 

Peggy Sue Tabs (ver.3)

*Blink 182* Tabs
 Rating:
4/5 (4 votes)
Peggy Sue lessons Tabs too difficult? Try these video lessons and learn fast
                			     PEGGY SUE - BLINK-182




I HAVE TO GIVE SOME CREDIT TO SUBMITER (COMPARTMENT 3A) BECAUSE I COPIED THE
INTERLUDE


INTRO:
e|---------------------------------------------------------------------------|
B|---------------------------------------------------------------------------|
G|-6-6-6-9-9-6--6--6-6-6-9---7-7-7-7-7--7-7-7-7-7--6-6-6-9-9-6--6------------|
D|-7-7-7-7-7-7--7--7-7-7-7---7-7-7-7-7--7-7-7-7-7--7-7-7-7-7-7--7------------|
A|---------------------------------------------------------------------------|
E|---------------------------------------------------------------------------|


INTRO CONT.
e|---------------------------------------------------------------------------|
B|---------------------------------------------------------------------------|
G|-6-6-6-9-9-6--6--9-9-9-9-9--7-7-7-7-7--6-6-6-9-9-6------------------------|
D|-7-7-7-7-7-7--7--7-7-7-7-7--7-7-7-7-7--7-7-7-7-7-7-------------------------|
A|---------------------------------------------------------------------------|
E|---------------------------------------------------------------------------|


VERSE:
e|---------------------------------------------------------------------------|
B|---------------------------------------------------------------------------|
G|---------------------7-777777----------------------------------------------|
D|-7-777777--4-444444--7-777777--22-22-2-------------------------------------|
A|-7-777777--4-444444--5-555555--22-22-2-------------------------------------|
E|-5-555555--2-222222------------00-44-0-------------------------------------|


     mmmmmm    mmmmmm    mmmmmm
CHORUS:
e|---------------------------------------------------------------------------|
B|---------------------------------------------------------------------------|
G|-77777-77777--------------77777-77777-------99999--------------------------|
D|-77777-77777--77777-77777-77777-77777-77777-99999--------------------------|
A|-55555-55555--77777-77777-55555-55555-77777-77777--------------------------|
E|--------------55555-55555-------------55555--------------------------------|



INTERLUDE:
e|-------------------------------|

B|-------------------------------|

G|-------------------------------|

D|--7-6/7-7---7--6h7-9-----------|

A|-0-----0-0-0-0-----------------|

E|-------------------------------|



INTERLUDE:
e|-5---4---4h5----5--4/5h7-------|

B|--55--55-----55--5-------------|

G|-------------------------------|

D|-------------------------------|

A|-------------------------------|

E|-------------------------------|



if you have any questions or comments please e-mail me.
            
Submit corrections

comments powered by Disqus
↑ Back to top | *Blink 182* Tabs for Peggy Sue. Lyrics for acoustic guitar and electric guitar. Tablatures and chords are parodies/interpretations of the original songs. You may use it for private study, scholarship, research or language learning purposes only