» » »

*Blink 182*, Peggy Sue Tabs (ver.1)

Artists:  A B C D E F G H I J K L M N O P Q R S T U V W X Y Z # 

Peggy Sue Tabs (ver.1)

*Blink 182* Tabs
Rating:
0/5 (0 votes)
Peggy Sue lessons Tabs too difficult? Try these video lessons and learn fast
                "Peggy Sue"
                           by blink 182
                          (Cheshire Cat)

Intro
e-------0---------0---------------0-----------------------------------
b-2-222---2-2-222---2----3--2-222---2---------------------------------
g-2---------2------------2--2----------9---9--9--9---7---7---7--7-----
d-2---------2------------0--2----------9-9---9--9----7-7---7---7----7-
a-0---------0---------------0----------7-------------5--------------7-
e-------------------------------------------------------------------5-

A5               F#5          D5                     Em Em F#5 F#5 Em
I know what it's like to be alone sitting in your room  
A5            F#5                D5
Listening to all those doubts that your parents have to say to you
A5                      F#5           D5                Em EM F# F# Em
As your head gets all cluttered inside  try to stay awake     (5)(5)
A5               F#5         D5
Everything they say are lies  That's all the sh*t that you
Em Em F#5 F#5 Em
Ever have to take so...

Chorus
D5                   A5
Hold in all your aggressions because you're 
D5             A5            E5     D5               
Grinding your teeth on down to the bottom of your chin
D5                         A5      
It's not easy or so damn pleasing to not laugh
D5        A5             E5             D5
At every word they say as they tell you what to be
D5           A5
You're not alone

(Repeat Intro)
(Verse 2 Same Chords

Bridge
e-----0-----0---0--------
b-2-3---2-3-------3-2-3--
g------------------------
d------------------------
a------------------------
e------------------------

Chord Chart
e----------------
b----------------
g-------7-----9--
d-7--4--7--2--9--
a-7--4--5--2--7--
e-5--2-----0-----
 A5 F#5 D5 Em E5
            

comments powered by Disqus
↑ Back to top | *Blink 182* Tabs for Peggy Sue. Lyrics for acoustic guitar and electric guitar. Tablatures and chords are parodies/interpretations of the original songs. You may use it for private study, scholarship, research or language learning purposes only