» » »

Peggy Sue Bass tabs (ver.1)

Artists:  A B C D E F G H I J K L M N O P Q R S T U V W X Y Z # 

Peggy Sue Bass tabs (ver.1)

*Blink 182*
Rating:
0/5 (0 votes)

Hard to play? Try these video lessons and learn fast.
                (Live1)
I noticed that the bass for Peggy Sue on The Mark, Tom, and Travis Show was different than the original on Cheshire Cat, especially the bridge bass solo. So for all you fans of Blink's live sh*t here it is:
- strum
h- hammer on
p- pull off
b- bend
/- slide up
\- slide down

Intro:
G---------------------------------------------------------------------------------------------------------
D---------------------------------------------------------------------------------------------------------
A-------------------------5>5>--------------------7>7>--------5>5>--------------------------------
E-----------5>5>----------------------5>5>--------------------------------5>5>5>5>-------------

Verse:
G---------------------------------------------------------------------------------------------------------
D---------------------------------------------------------------------------------------------------------
A----------------------------------------0-5>5>--------------------------------------------------------
E-----------5>5>--------2>2>------------------------0-0-2-2-0-------------------------------------

Chorus:
G---------------------------------------------------------------------------------------------------------
D----------------------------------------5>-5-5-4-2-4-------------------------------------------------
A----------5>5>---------------------------------------------5>---------7>----------------------------
E--------------------------5>5>-------------------------------------------------------------------------

Bridge:
G---------------------------------------------------------------------------------------------------------
D---------------------------------------------------------------------------------------------------------
A--------------------------------5-4---------------5-5-5-5-7-5-------------------------------------
E---------5-5-5-5-5-5-5-5---------0-0-0-0-0-------------------------------------------------------

G---------------------------------------------------------------------------------------------------------
D---------------------------------------------------------------------------------------------------------
A-------------------------------4-5-7-7-7-7-7-5-5-5-5-7-5------------------------------------
E---------5-5-5-5-5-5-5-5----------------------------------------------------------------------------
            
Hard to play? Try these video lessons and learn fast. | Correct




comments powered by Disqus
↑ Back to top | Tablatures and chords are parodies/interpretations of the original songs. You may use it for private study, scholarship, research or language learning purposes only