» » »

*Blink 182*, M And Ms Tabs (ver.2)

Artists:  A B C D E F G H I J K L M N O P Q R S T U V W X Y Z # 

M And Ms Tabs (ver.2)

*Blink 182* Tabs
Rating:
0/5 (0 votes)
M And Ms lessons Tabs too difficult? Try these video lessons and learn fast
                "(1)
SLR=Shortly Let Ring 
First Chord
E-|-----------------------------------------------------------------0slr
B-|---------------------------------------------------------------------
G-|---------------------------------------------------------------------
D-|-------7-------Let the beastie ring--then, right before riff 1-------
A-|-------7-------------------------------------------------------------
E-|-------5-------------------------------------------------------------


The Coolest Part of the song............
E-|---0-4-0-0-5-0-0-7-5-4-5-4-0---------2-0-4-0-5-4-2-0-----------------
B-|---------------------------------------------------------------------
G-|---------------------------------------------------------------------
D-|---------------------------------------------------------------------
A-|---------------------------------------------------------------------
E-|---------------------------------------------------------------------

E-|--0-0-4-0-0-5-0-0-7-5-4-5-4-0-------0-2-0-0-4-0-0-2-0-4-0-2-0--------
B-|---------------------------------------------------------------------
G-|---------------------------------------------------------------------
D-|---------------------------------------------------------------------
A-|---------------------------------------------------------------------
E-|---------------------------------------------------------------------

Repeat this

Here's the first part   of the verse (riff 2) 
E-|--------------------------------------------------------------------
B-|--------------------------------------------------------------------
G-|---9---9---9---9----9---9---9---9-----9---9---9---9-----9---9---9--9
D-|-------------------------------------6---6---6---6----7---7---7---7-
A-|-7---7---7---7----9---9---9---9-------------------------------------
E-|--------------------------------------------------------------------

Let it ring a for a while after the power chord then play the rest.....
E-|--------------------------------------------------------------------
B-|--------------------------------------------------------------------
G-|-9-------------------9----------------------------------------------
D-|-9-------------------9----------------------------------------------
A-|-7----9-9-7-9-7-6-7--7---9-9-7-9-7-6--(go-right-into-chorus)--------
E-|--------------------------------------------------------------------

E-|--------------------------------------------------------------------
B-|--------------------------------------------------------------------
G-|----------------------------4-4-4-4--------------------------------4
D-|-4-4-4-4--7-7-7-7--2-2-2-2--4-4-4-4-x3-then play the same thing on-4 
A-|-4-4-4-4--7-7-7-7--2-2-2-2--2-2-2-2----the last set of chords only-2
E-|-2-2-2-2--5-5-5-5--0-0-0-0----------------hit it once.--------------

Then you pretty much repeat the whole tab from here, then........

E-|--------------------------------------------------------------------
B-|--------------------------------------------------------------------
G-|-7-----------4-----------6-----------2---------------------9--------
D-|-7-let ring--4-let ring--6-let ring--2--let ring, then..---9-x64----
A-|-5-----------2-----------4-----------0---------------------7--------
E-|--------------------------------------------------------------------

Yeah, that's right.....64 times!!! Then Just play the first part again,
the cool part then I think you play that whole cool part twice then end 
on this chord.

E-}---------- 
B-}---------- 
G-}----------
D-}--2-------
A-}--2-L.R.--
E-}--0-------
Well, that is the whole thing have fun
"            
Submit corrections

comments powered by Disqus
↑ Back to top | *Blink 182* Tabs for M And Ms. Lyrics for acoustic guitar and electric guitar. Tablatures and chords are parodies/interpretations of the original songs. You may use it for private study, scholarship, research or language learning purposes only