>
 >
M Ms

M Ms Guitar Tabs

*Blink 182* - M Ms chords, tabs, tablatures, lyrics

Guitar lessons | Add/correct | Request | Top 50 tabs Artists:  A B C D E F G H I J K L M N O P Q R S T U V W X Y Z 0-9

M Ms Guitar Tabs – *Blink 182*

CD, Sheet music, Poster

Do you like M Ms? Share with your friends now
Tabs
Intro
E|--4p0-5p0-7-5-4-5p4-5-2p0-4p0-5-4-2-0-----------------|
B|------------------------------------------------------|
G|------------------------------------------------------|
D|------------------------------------------------------|
A|------------------------------------------------------|
E|------------------------------------------------------|

1st Verse
E|------------------------------------------------------|
B|---9--9--9--9--9--9--9--9--9--9--9--9--9--9--9--9-----|
G|-------------------------6--6--6--6--7--7--7--7-------|
D|-7--7--7--7--9--9--9--9-------------------------------|
A|------------------------------------------------------|
E|------------------------------------------------------|

2nd Verse
E|----------------------------------------------------------|
B|--55555555555555--------------555555555555555-------------|
G|--44444444444444--------------444444444444444-------------|
D|--22222222222222--4-2-4-2-1-2-222222222222222--4-2-4-2-1-2|
A|----------------------------------------------------------|
E|----------------------------------------------------------|


Chorus
E|------------------------------------------------------|
B|------------------------------------------------------|
G|---------22222222-44444444----------------------------|
D|-4444444-22222222-44444444-222222222------------------|
A|-4444444-00000000-22222222-222222222------------------|
E|-2222222-------------------000000000------------------|

Bridge
E|------------------------------------------------------|
B|-5555555555555555555555555555-------------------------|
G|-4444444444444444444444444444-------------------------|
D|-2222222222222222222222222222-------------------------|
A|------------------------------------------------------| 
E|------------------------------------------------------|

E|------------------------------------------------------|
B|------------------------------------------------------|
G|---4-6------------------------------------------------|
D|-2-4-6-7----------------------------------------------|
A|-2-2-4-7----------------------------------------------|
E|-0-----5----------------------------------------------|





Comments


Popular *Blink 182* tabs & chords
Anthem Part Two Live Bass Tabs
Carousel Bass Tabs
Feeling This Bass Tabs
Feeling This 4 Bass Tabs
Dammit 1 Chords
Adams Song 1 Tabs
Aliens Exist 5 Tabs
Alone Tabs
Carousel 9 Tabs
Family Reunion 1 Tabs


Song lyrics



↑ Back to top | Tablatures and chords are parodies/interpretations of the original songs. You may use it for private study, scholarship, research or language learning purposes only
© 2014 AZChords.com Contact us | Privacy policy | DMCA | Add/correct tabs | Request tabs | Top 50 tabs