» » »

*Blink 182*, M And Ms Tabs (ver.1)

Artists:  A B C D E F G H I J K L M N O P Q R S T U V W X Y Z # 

M And Ms Tabs (ver.1)

*Blink 182* Tabs
 Rating:
4/5 (4 votes)
M And Ms lessons Tabs too difficult? Try these video lessons and learn fast
1
                Intro                           
E|-0--4^0-5^0--0--7^0--5--4--0-|-0--4^0--5^0--0-4^0--2--0-|
B|-----------------------------|--------------------------|
G|-----------------------------|--------------------------|
D|-----------------------------|--------------------------|
A|-----------------------------|--------------------------|
E|-----------------------------|--------------------------|
  4x

  Verse 
E|------------------------|-------------------------|
B|------------------------|-------------------------|
G|----9-----9-----9-----9-|-----9-----9-----9-----9-|
D|------------------------|-------------------------|
A|-7-----7-----7-----7----|--9-----9-----9-----9----|
E|------------------------|-------------------------|


E|------------------------|-------------------------|
B|------------------------|-------------------------|
G|----9-----9-----9-----9-|-----9-----9-----9-----9-|
D|-6-----6-----6-----6----|--7-----7-----7-----7----|
A|------------------------|-------------------------|
E|------------------------|-------------------------|

E|-----------------------------------|
B|-----------------------------------|
G|-9----(9)----(9)-------------------|
D|-9----(9)----(9)-------------------|
A|-7----(7)----(7)----7---7-9-7--6-7-|
G|-----------------------------------|
                                                                        
 Chorus
E|------------------------------------|
B|------------------------------------|
G|----------------------------4-4-4-4-|
D|-4-4-4-4--7-7-7-7--2-2-2-2--4-4-4-4-|
A|-4-4-4-4--7-7-7-7--2-2-2-2--2-2-2-2-|
E|-2-2-2-2--5-5-5-5--0-0-0-0----------|

 Interlude Part 1
E|-----------------------------------------------|
B|-----------------------------------------------|
G|-9---------------------------------------------|
D|-9-----9-----11-----7-----2-----9-----11-----7-|
A|-7-----9-----11-----7-----2-----9-----11-----7-|
G|-------7------9-----5-----0-----7------9-----5-|

  Interlude Part 2
e|-----------------------|
B|-----------------------|
G|-9--9--9----9--9--9--9-|
D|-9--9--9----9--9--9--9-|
A|-7--7--7----7--7--7--7-|
E|-----------------------|

 Ending Chord 
e|---|
B|---|
G|---|
D|-2-|
A|-2-|
E|-0-|                                        




Order:

Intro:------------ 4x
Verse: ----------- 2x
Pre-Chorus:------- 2x
Chorus:----------- 4x 
Intro:------------ 4x
Verse:------------ 2x
Pre-Chorus:------- 2x
Chorus:----------- 4x 
Interlude Part 1:- 2x
Interlude Part 2:- 8x
Intro:------------ 8x
Ending Chord:----- 1x
            
Submit corrections

comments powered by Disqus
↑ Back to top | *Blink 182* Tabs for M And Ms. Lyrics for acoustic guitar and electric guitar. 1 Tablatures and chords are parodies/interpretations of the original songs. You may use it for private study, scholarship, research or language learning purposes only