» » »

*Blink 182*, Feeling This Tabs (ver.11)

Artists:  A B C D E F G H I J K L M N O P Q R S T U V W X Y Z # 

Feeling This Tabs (ver.11)

*Blink 182* Tabs
 Rating:
4/5 (4 votes)
Feeling This lessons Tabs too difficult? Try these video lessons and learn fast
1
                (Live)
-------------------------------------------------------------------------------
                             Feeling This (Live) - Blink 182
-------------------------------------------------------------------------------

Tuning: Standard

This should be 100% correct (They change the bridge sometimes while playing live)

Intro + Verse

e|-------------------------------------------------------------------------|
B|-------------------------------------------------------------------------|
G|11\9-9-9-----9/13--0-----------------------------------------------------|
D|x--x-x-x-----x--x--0-----------------------------------------------------|
A|9-\7-7-7--7--7/11--0-----------------------------------------------------|
E|----------0-------(0)----------------------------------------------------|

The (0) isn't a necessary note.


Chorus

e|-------------------------------------------------------------------------|
B|-------------------------------------------------------------------------|
G|-------------------------------------------------------------------------|
D|2------------------------------------2-----------------------------------|
A|2------------------------------------2-----------------------------------|
E|0------------------------------------0-----------------------------------|

Interlude

e|-------------------------------------------------------------------------|
B|-------------------------------------------------------------------------|
G|9-9-9-9-9-9-9/11-11-11-11-11-11-11/13-13-13-13-13-13-13/14-14-14-14-14-14|
D|x-x-x-x-x-x-x--x--x--x--x--x--x--x--x--x--x--x--x--x--x--x--x--x--x--x--x|
A|7-7-7-7-7-7-7/-9--9--9--9--9--9--9/11-11-11-11-11-11-11/12-12-12-12-12-12|
E|-------------------------------------------------------------------------|

Bridge

e|-------------------------------------------------------------------------|
B|-------------------------------------------------------------------------|
G|-------------------------------------------------------------------------|
D|----8----8---8----------6/8-8-8------6-----6---6---------6/8-8-8---------|
A|9-9--9-9---9---------------------4-4---4-4---4-----0-0-0-----------------|
E|------------------9-9-9--------------------------------------------------|

Outro

e|-------------------------------------------------------------------------|
B|-------------------------------------------------------------------------|
G|9-9-9-9-9-9-9------------------------------------------------------------|
D|9-9-9-9-9-9-9-9-9-9-9-9-9-9-11-11-11-11-11-11-11-7-7-7-7-7-7-7-----------|
A|7-7-7-7-7-7-7-9-9-9-9-9-9-9-11-11-11-11-11-11-11-7-7-7-7-7-7-7-----------|
E|--------------7-7-7-7-7-7-7-9--9--9--9--9--9--9--5-5-5-5-5-5-5-----------|

| /  slide up
| \  slide down
| h  hammer-on
| p  pull-off
| ~  vibrato
| +  harmonic
| x  Mute note



Order of the song is

Intro
Verse
Chorus
Interlude
Verse
Chorus
Bridge
Outro
===============================================================================
            
Submit corrections

comments powered by Disqus
↑ Back to top | *Blink 182* Tabs for Feeling This. Lyrics for acoustic guitar and electric guitar. 1 Tablatures and chords are parodies/interpretations of the original songs. You may use it for private study, scholarship, research or language learning purposes only