» » »

Feeling This Tabs (ver.2)

Artists:  A B C D E F G H I J K L M N O P Q R S T U V W X Y Z # 

Feeling This Tabs (ver.2)

*Blink 182*
Rating:
0/5 (0 votes)

Hard to play? Try these video lessons and learn fast.
                Intro     
E |-------------------------------|-------------------------------|
B |-------------------------------|-------------------------------|
G |-10/9-9-9--9-9-------9-/-13----|-10/9-9-9--9-9-------9-/-13----|
D |-------------------------------|-------------------------------|
A |-8-/7-7-7--7-7-------7-/-11----|-8-/7-7-7--7-7-------7-/-11----|
E |-------------0---------------0-|-------------0---------------0-|
    1   &   2   &   3   &   4   &   1   &   2   &   3   &   4   &


Verse
E |-------------------------------|-------------------------------|
B |-------------------------------|-------------------------------|
G |-10/9-9-9--9-9-------9-/-13----|-10/9-9-9--9-9-------9-/-13----|
D |-------------------------------|-------------------------------|
A |-8-/7-7-7--7-7-------7-/-11----|-8-/7-7-7--7-7-------7-/-11----|
E |-------------0---------------0-|-------------0---------------0-| (repeat 4x)
    1   &   2   &   3   &   4   &   1   &   2   &   3   &   4   &


Chorus
E |-------------------------------|-------------------------------|
B |-------------------------------|-------------------------------|
G |-9-----------------------------|-------------------------------|
D |-9-----------------------------|-------------------------------|
A |-7-----------------------------|-------------------------------|
E |-0-----------------------------|-------------------------------| (repeat 2x)
    1   &   2   &   3   &   4   &   1   &   2   &   3   &   4   &


Pre-Verse
E |-------------------------------------------------|
B |-------------------------------------------------|
G |-9—-9--9--9--9--9--9--9/-11-11-11-11-11-11-11-11-|
D |-------------------------------------------------|
A |-7—-7--7--7--7--7--7--7/-9—-9--9--9--9--9--9--9--|
E |-------------------------------------------------|
    1  e  &  a  2  e  &  a  3  e  &  a  4  e  &  a

Pre-Verse
E |-------------------------------------------------|
B |-------------------------------------------------|
G |-13-13-13-13-13-13-13-13/14-14-14-14-14-14-14-14-|
D |-------------------------------------------------|
A |-11-11-11-11-11-11-11-11/12—12-12-12-12-12-12-12-|
E |-------------------------------------------------|
    1  e  &  a  2  e  &  a  3  e  &  a  4  e  &  a



Verse
E |-------------------------------|-------------------------------|
B |-------------------------------|-------------------------------|
G |-10/9-9-9--9-9-------9-/-13----|-10/9-9-9--9-9-------9-/-13----|
D |-------------------------------|-------------------------------|
A |-8-/7-7-7--7-7-------7-/-11----|-8-/7-7-7--7-7-------7-/-11----|
E |-------------0---------------0-|-------------0---------------0-| (repeat 4x)
    1   &   2   &   3   &   4   &   1   &   2   &   3   &   4   &


Chorus
E |-------------------------------|-------------------------------|
B |-------------------------------|-------------------------------|
G |-9-----------------------------|-------------------------------|
D |-9-----------------------------|-------------------------------|
A |-7-----------------------------|-------------------------------|
E |-0-----------------------------|-------------------------------| (repeat 2x)
    1   &   2   &   3   &   4   &   1   &   2   &   3   &   4   &


[Drum Solo]...


Interlude  (Palm Mute)			Palm Mute
E |-------------------------------|-------------------------------|
B |-------------------------------|-------------------------------|
G |-9---9---9---9---9---9---9---9-|-------------------------------|
D |-9---9---9---9---9---9---9---9-|-9---9---9---9---9---9---9---9-|
A |-7---7---7---7---7---7---7---7-|-9---9---9---9---9---9---9---9-|
E |-------------------------------|-7---7---7---7---7---7---7---7-| 
    1   &   2   &   3   &   4   &   1   &   2   &   3   &   4   &

	Palm Mute			Palm Mute
E |-------------------------------|-------------------------------|
B |-------------------------------|-------------------------------|
G |-------------------------------|-------------------------------|
D |-11--11--11--11--11--11--11--11|-7---7---7---7---7---7---7---7-|
A |-9---9---9---9---9---9---9---9-|-5---5---5---5---5---5---5---5-|
E |-9---9---9---9---9---9---9---9-|-5---5---5---5---5---5---5---5-|
    1   &   2   &   3   &   4   &   1   &   2   &   3   &   4   &

	Palm Mute			Palm Mute
E |-------------------------------|-------------------------------|
B |-------------------------------|-------------------------------|
G |-9---9---9---9---9---9---9---9-|-------------------------------|
D |-9---9---9---9---9---9---9---9-|-9---9---9---9---9---9---9---9-|
A |-7---7---7---7---7---7---7---7-|-9---9---9---9---9---9---9---9-|
E |-------------------------------|-7---7---7---7---7---7---7---7-| 
    1   &   2   &   3   &   4   &   1   &   2   &   3   &   4   &

	Palm Mute			Palm Mute
E |-------------------------------|-------------------------------|
B |-------------------------------|-------------------------------|
G |-------------------------------|-------------------------------|
D |-11--11--11--11--11--11--11--11|-7-----------------------------|
A |-9---9---9---9---9---9---9---9-|-5-----------------------------|
E |-9---9---9---9---9---9---9---9-|-5-----------------------------|
    1   &   2   &   3   &   4   &   1   &   2   &   3   &   4   &



Ending 
E |-------------------------------|-------------------------------|
B |-------------------------------|-------------------------------|
G |-9---9---9---9---9---9---9---9-|-------------------------------|
D |-9---9---9---9---9---9---9---9-|-9---9---9---9---9---9---9---9-|
A |-7---7---7---7---7---7---7---7-|-9---9---9---9---9---9---9---9-|
E |-------------------------------|-7---7---7---7---7---7---7---7-| 
    1   &   2   &   3   &   4   &   1   &   2   &   3   &   4   &


E |-------------------------------|-------------------------------|
B |-------------------------------|-------------------------------|
G |-------------------------------|-------------------------------|
D |-11--11--11--11--11--11--11--11|-7---7---7---7---7---7---7---7-|
A |-9---9---9---9---9---9---9---9-|-5---5---5---5---5---5---5---5-|
E |-9---9---9---9---9---9---9---9-|-5---5---5---5---5---5---5---5-| (repeat 8x)
    1   &   2   &   3   &   4   &   1   &   2   &   3   &   4   &


-First Single off their new Album coming out November 2003.
-Blink is cool! Have Fun! -Daniel!
            
Hard to play? Try these video lessons and learn fast. | Correct




comments powered by Disqus
↑ Back to top | Tablatures and chords are parodies/interpretations of the original songs. You may use it for private study, scholarship, research or language learning purposes only