» » »

Feeling This Tabs (ver.3)

Artists:  A B C D E F G H I J K L M N O P Q R S T U V W X Y Z # 

Feeling This Tabs (ver.3)

*Blink 182*
Rating:
0/5 (0 votes)

Hard to play? Try these video lessons and learn fast.
                [EADGBe]

Intro
e|----------------------------
B|----------------------------
G|----------------------------
D|----------------------------
A|--7/-5-5-5-5-5------9-------
D|----------------0-----0-----
 

e|-----------------------------
B|-----------------------------
G|--9/---7-7-7-7-7---9/--11-11-
D|--x/---x-x-x-x-x---x/---0--0-
A|--7/---5-5-5-5-5---7/---9--9-
D|-----------------------------
                              
Chorus
e|----------------------|
B|----------------------|
G|----------------------|
D|-2------------2-------|
A|-2------------2-------|
E|-0------------0-------| 
   
Break 
e|--------------------------------------------|
B|--------------------------------------------|
G|-9-9-9-9-9-9-9-9-11-11-11-11-11-11-11-11-11-|
D|-x-x-x-x-x-x-x-x-x-x-x-x-x-x-x-x-x-x-x-x-x--|
A|-7-7-7-7-7-7-7-7-9--9--9--9--9--9--9--9--9--|
E|--------------------------------------------|

e|-------------------------------------------------|
B|-------------------------------------------------|
G|-13-13-13-13-13-13-13-13-14-14-14-14-14-14-14-14-|
D|-x--x--x--x--x--x--x--x--x--x--x--x--x--x--x--x--|
A|-11-11-11-11-11-11-11-11-12-12-12-12-12-12-12-12-| 
E|-------------------------------------------------|

Verse
e|----------------------|
B|----------------------|
G|---11/9-9-9---9/13----|   X6
D|---X--X-X-X---X-X-----|
A|---9/-7-7-7-7-7/11----|
E}----------------------|

                               
Chorus
e|----------------------|
B|----------------------|
G|----------------------|
D|-2------------2-------|
A|-2------------2-------|
E|-0------------0-------| 

Bridge pt.3
e|-----------------------------------------------------------------|
B|-----------------------------------------------------------------|
G|-9-9-9-9-9-9-9-9-9-9-9-9-9-9-9-9-9-9-9-9-9-9-9-9-9-9-9-9-9-9-9-9-|
D|-9-9-9-9-9-9-9-9-9-9-9-9-9-9-9-9-9-9-9-9-9-9-9-9-9-9-9-9-9-9-9-9-|
A|-7-7-7-7-7-7-7-7-x-x-x-x-x-x-x-x-x-x-x-x-x-x-x-x-0-0-0-0-0-0-0-0-|   x2
E|-----------------7-7-7-7-7-7-7-7-9-9-9-9-9-9-9-9-----------------|
 
Outro
e|-------------------------------------------------------------------------|
B|-------------------------------------------------------------------------|
G|-9-9-9-9-9-9-9-9---------------------------------------------------------|
D|-9-9-9-9-9-9-9-9-9-9-9-9-9-9-9-9-11-11-11-11-11-11-11-11-7-7-7-7-7-7-7-7-|
A|-7-7-7-7-7-7-7-7-9-9-9-9-9-9-9-9-11-11-11-11-11-11-11-11-7-7-7-7-7-7-7-7-| 
E|-----------------7-7-7-7-7-7-7-7-9--9--9--9--9--9--9--9--5-5-5-5-5-5-5-5-|
:)
I'll change them to make them better.
            
Hard to play? Try these video lessons and learn fast. | Correct




comments powered by Disqus
↑ Back to top | Tablatures and chords are parodies/interpretations of the original songs. You may use it for private study, scholarship, research or language learning purposes only