» » »

*Blink 182*, Feeling This Tabs (ver.1)

Artists:  A B C D E F G H I J K L M N O P Q R S T U V W X Y Z # 

Feeling This Tabs (ver.1)

*Blink 182* Tabs
 Rating:
4/5 (4 votes)
Feeling This lessons Tabs too difficult? Try these video lessons and learn fast
                I'm sick of not getting the most accurate tabs for this song, and so they leave me
no choice but to make my own. I tabbed according to what they played live on TRL,
so it is at least 95% accurate. This is as Acurate as it gets....u Need a capo though
-Standard Tuning
-Capo at 2nd or 3rd fret

/ - slide up
. - palm mute

(*Drums intro*)
intro-(Begginners)
e--------------
B--------------
G------------1-
D-4p2-22----2--
A--------2-----
E--------------
Intro:(Tom Delonge Proper way)

e|----------------------------|
B|----------------------------|
G|--11--999-----------9/--13--|
D|--11--999-----0-----9/--13--|
A|--9---777-----0-----7/--11--|
E|--------------0-------------| (x2) (at 11, don't strum, juz pull from 7)

Verse1:

e|----------------------------|
B|----------------------------|
G|--11--999-----------9/--13--|
D|--11--999-----0-----9/--13--|
A|--9---777-----0-----7/--11--|
E|--------------0-------------| (x8) (at 11, don't strum, juz pull from 7)
       

Chorus1:

e|----------------|
B|----------------|
G|----------------|
D|---7--------7---|
A|---7--------7---|
E|---0--------0---|

    Fate..     Place..

Pre-verse2:

e|--------------------------------|
B|--------------------------------|
G|-9--9999--9/-11--11-11-11-11----|
D|-9--9999--9/-11--11-11-11-11----|
A|-7--7777--7/-9---9--9--9--9-----|
E|--------------------------------|
     <fast>           <fast>

e|----------------------------------------------|
B|----------------------------------------------|
G|-11/-13--13-13-13-13-13---13/-14--14-14-14-14-|
D|-11/-13--13-13-13-13-13---13/-14--14-14-14-14-|
A|-9-/-11--11-11-11-11-11---11/-12--12-12-12-12-|
E|----------------------------------------------|  
              <fast>		      <fast>

Verse2:

e|--------------------------------------|
B|--------------------------------------|
G|--11--999-----------9/--13------------|
D|--11--999-----0-----9/--13------------|
A|--9---777-----0-----7/--11------------|
E|--------------0-----------------------| (x8)(at 11, don't strum, juz pull from 7)


2nd Chorus
e|----------------|
B|----------------|
G|----------------|
D|---7--------7---|
A|---7--------7---|
E|---0--------0---|

    Fate..     Place..

3rd Chrous:
(drums only)

Bridge:

e|-------------------------------------------------------------------------|
B|-------------------------------------------------------------------------|
G|-9-9-9-9-9-9-9-9---------------------------------------------------------|
D|-9-9-9-9-9-9-9-9-9-9-9-9-9-9-9-9-11-11-11-11-11-11-11-11-7-7-7-7-7-7-7-7-|
A|-7-7-7-7-7-7-7-7-9-9-9-9-9-9-9-9-11-11-11-11-11-11-11-11-7-7-7-7-7-7-7-7-| 
E|-----------------7-7-7-7-7-7-7-7-9--9--9--9--9--9--9--9--5-5-5-5-5-5-5-5-| (x2) (Palm Mute)
   . . . . . . . . . . . . . . . . . . . . . . . . . . . . . . . . . . . . 
   Look to the past...

The rest of the song:

e|-------------------------------------------------------------------------|
B|-------------------------------------------------------------------------|
G|-9-9-9-9-9-9-9-9---------------------------------------------------------|
D|-9-9-9-9-9-9-9-9-9-9-9-9-9-9-9-9-11-11-11-11-11-11-11-11-7-7-7-7-7-7-7-7-|
A|-7-7-7-7-7-7-7-7-9-9-9-9-9-9-9-9-11-11-11-11-11-11-11-11-7-7-7-7-7-7-7-7-| 
E|-----------------7-7-7-7-7-7-7-7-9--9--9--9--9--9--9--9--5-5-5-5-5-5-5-5-| 

THAT's it!
Go practice, n you'll be perfect!
            
Submit corrections

comments powered by Disqus
↑ Back to top | *Blink 182* Tabs for Feeling This. Lyrics for acoustic guitar and electric guitar. Tablatures and chords are parodies/interpretations of the original songs. You may use it for private study, scholarship, research or language learning purposes only