» » »

Feeling This Bass tabs (ver.6)

Artists:  A B C D E F G H I J K L M N O P Q R S T U V W X Y Z # 

Feeling This Bass tabs (ver.6)

*Blink 182*
Rating:
0/5 (0 votes)

Hard to play? Try these video lessons and learn fast.
                -------------------------------------------------------------------------------
			     FEELING THIS - Blink-182
-------------------------------------------------------------------------------

Tuning: EADG

VERSE X2

G|---------------------------------------------------------------------------|
D|--------9----9---9----9---7676------6----6---6----6---7679-----------------|
A|-----77---77---7---77---7--------44---44---4---44---4----------------------|
E|---------------------------------------------------------------------------|

G|---------------------------------------------------------------------------|
D|--------9----9---9----9---7676------6----6---6----6------------------------|
A|-----77---77---7---77---7--------44---44---4---44---4----------------------|
E|------------------------------------------------------5457-----------------|

CHORUS X2

G|---------------------------------------------------------------------------|
D|---------------------------------------------------------------------------|  
A|-------------22222222-44444444-00000000------------------------------------|
E|----00000000---------------------------------------------------------------|

VERSE X2

CHORUS X1

BRIDGE

(Starts right when Mark starts singing the bridge)

G|---------------------------------------------------------------------------|
D|-----------------------------------22222222--------------------------------|
A|----7~~~~~~~~~------------------------------22222222-44444444-0000000------|
E|---------------------------------------------------------------------------|

G|---------------------------------------------------------------------------|
D|----22222222---------------642---------------------------------------------|
A|-------------22222222-4444-----2-------------------------------------------|
E|---------------------------------------------------------------------------|



Repeat VERSE until end.



This is my first tab, but i think it's pretty close (:



===============================================================================
            
Hard to play? Try these video lessons and learn fast. | Correct




comments powered by Disqus
↑ Back to top | Tablatures and chords are parodies/interpretations of the original songs. You may use it for private study, scholarship, research or language learning purposes only