>
 >
Feeling This 100%

Feeling This 100% Guitar Tabs

*Blink 182* - Feeling This 100% chords, tabs, tablatures, lyrics

Guitar lessons | Add/correct | Request | Top 50 tabs Artists:  A B C D E F G H I J K L M N O P Q R S T U V W X Y Z 0-9

Feeling This 100% Guitar Tabs – *Blink 182*

CD, Sheet music, Poster

Do you like Feeling This 100%? Share with your friends now
Tabs
Blink 182
Feeling This
brought to u by: Sonny Spencer
or AIM: punkgtrst7


Drop D tuning, but capo on 2nd fret, all notes are relative to capo


intro
|-----------------------------|
|-----------------------------|
|-----------------------------|
|-----------------------------|
|--7\5---5---5-----5\9----0---|
|---------------0---------0---| x2

verse: more distortion
|-----------------------------------|
|-----------------------------------|
|--9\\7---7---7-------7\\---11------|
|--x\\x---x---x-------x\\---0----0--|
|--7\\5---5---5-------5\\---9----0--|
|------------------0-------------0--| x8

chorus
  fate...    place...
|----------|----------|
|----------|----------|
|----------|----------|
|--0-------|--0-------|
|--0-------|--0-------|
|--0-------|--0-------|

fill (fast up and down picking) number of times is up to u
|-------------------------------------------------------------------|
|-------------------------------------------------------------------|
|--7-7-7-7-7-7-7\\-9-9-9-9-9-9-9\\-11-11-11-11-11\\-12-12-12-12-12--|
|--x-x-x-x-x-x-x\\-x-x-x-x-x-x-x\\--x-x-x-x-x-x-x\\--x--x--x--x--x--|
|--5-5-5-5-5-5-5\\-7-7-7-7-7-7-7\\--9-9-9-9-9-9-9\\-10-10-10-10-10--|
|-------------------------------------------------------------------|


-repeat intro x2

-then VERSE x6

-bridge @ 1:45

 look to the past...          ...a smile...                  ...maybe tonight...
|---------------------------|---------------------------|---------------------------|
|---------------------------|---------------------------|---------------------------|
|---------------------------|---------------------------|---------------------------|
|---------------------------|---------------------------|---------------------------|
|--5--5--5--5---5--5--5--5--|--0--0--0--0---0--0--0--0--|--2--2--2--2---2--2--2--2--|
|---------------------------|---------------------------|---------------------------|
 PM.................................................................................

    ...for a while...          ...not in the scene...       ...fallin asleep
|---------------------------|---------------------------|---------------------------|
|---------------------------|---------------------------|---------------------------|
|---------------------------|---------------------------|---------------------------|
|---------------------------|---------------------------|---------------------------|
|---------------------------|--5--5--5--5---5--5--5--5--|--0--0--0--0---0--0--0--0--|
|--5--5--5--5---5--5--5--5--|---------------------------|---------------------------|
 PM................................................................................

  ...that it means...         ...always...
|---------------------------|---------------------------|
|---------------------------|---------------------------|
|---------------------------|---------------------------|
|---------------------------|---------------------------|
|--2--2--2--2---2--2--2--2--|---------------------------|
|---------------------------|--5------------------------|
 PM.............................


Outro Chorus 
  ...fate...                 short...                   ...time
|--------------------------|--------------------------|--------------------------|
|--------------------------|--------------------------|--------------------------|
|--7--7--7--7--7--7--7-----|--2--2--2--2--2--2--2-----|--4--4--4--4--4--4--4--9--|
|--7--7--7--7--7--7--7-----|--2--2--2--2--2--2--2-----|--4--4--4--4--4--4--4--7--|
|--5--5--5--5--5--5--5--0--|--0--0--0--0--0--0--0--0--|--2--2--2--2--2--2--2--7--|
|-----------------------0--|-----------------------0--|-----------------------7--|

  ...fades
|--------------------------|
|--------------------------|
|--9--9--9--9--9--9--9-----|
|--7--7--7--7--7--7--7-----|
|--7--7--7--7--7--7--7--0--|
|--7--7--7--7--7--7--7--0--| x10





Comments


Popular *Blink 182* tabs & chords
Carousel 4 Bass Tabs
Fentoozler Drum Tabs
Anthem Part Two 3 Tabs
Cacophony Tabs
Emo Tabs
First Date Tabs
Grandpa Tabs
Seasons In The Sun Tabs
Stay Together For The Kids 2 Tabs
Track 38 Tabs


Song lyrics



↑ Back to top | Tablatures and chords are parodies/interpretations of the original songs. You may use it for private study, scholarship, research or language learning purposes only
© 2014 AZChords.com Contact us | Privacy policy | DMCA | Add/correct tabs | Request tabs | Top 50 tabs