» » »

*Blink 182*, Even If She Falls Tabs (ver.3)

Artists:  A B C D E F G H I J K L M N O P Q R S T U V W X Y Z # 

Even If She Falls Tabs (ver.3)

*Blink 182* Tabs
Rating:
0/5 (0 votes)
Even If She Falls lessons Tabs too difficult? Try these video lessons and learn fast
                -------------------------------------------------------------------------------
-------------------------------------------------------------------------------
Took me a while to figure the strumming for the 2nd guitar, 
if there is one, which is really faint. 
The best part of the song to learn is the verse. 

Tuning:Standard

Guitar 1 - Intro
e|---------------------------------------------------------------------------|
B|---------------------------------------------------------------------------|
G|---------------------------------------------------------------------------|
D|----4----------------------------------------------------------------------|
A|-----0-5~----4-5-7-5-7-5---------------------------------------------------|
E|---------------------------------------------------------------------------|

Guitar 2 - Intro
e|---------------------------------------------------------------------------|
B|---------------------------------------------------------------------------|
G|-----777---77777777--------------------------------------------------------|
D|-----xxx---xxxxxxxx--------------------------------------------------------|
A|-----555---55555555--------------------------------------------------------|
E|---------------------------------------------------------------------------|

Verse
e|---------------------------------------------------------------------------|
B|---------------------------------------------------------------------------|
G|----11-11-1111\12/9-9--99\11/77-77\11/99---7-------------------------------|
D|----x--x--x-x-\x-/x-x--xx\x-/xx-xx\x-/xx---x-------------------------------|
A|----9--9--9-9-\10/7-7--77\9-/55-55\9-/77---5-------------------------------|
E|---------------------------------------------------------------------------|


Guitar 1 - Chorus
e|---------------------------------------------------------------------------|
B|---------7~-----5~-----7~------8~------------------------------------------|
G|---------7~-----7~-----7~------7~------------------------------------------|
D|---------------------------------------------------------------------------|
A|---------------------------------------------------------------------------|
E|---------------------------------------------------------------------------|

Guitar 2 - Chorus
e|---------------------------------------------------------------------------|
B|---------------------------------------------------------------------------|
G|------777~-----------------------------------------------------------------|
D|---------------------------------------------------------------------------|
A|------555~-----------------------------------------------------------------|
E|---------------------------------------------------------------------------|

Guitar 1 - Bridge
e|---------------------------------------------------------------------------|
B|---------------------------------------------------------------------------|
G|----------7~-------8~------------------------------------------------------|
D|-----------7~--------7~----------------------------------------------------|
A|-------------0~--------0~--------------------------------------------------|
E|---------------------------------------------------------------------------|

Guitar 2 - Bridge 
(Really faint and hard to hear. 
Still trying to figure out the strumming, 
but I believe it sounds like this)
e|---------------------------------------------------------------------------|
B|---------------------------------------------------------------------------|
G|----------7---77----77777--------------------------------------------------|
D|----------x---xx----xxxxx--------------------------------------------------|
A|----------5---55----55555--------------------------------------------------|
E|---------------------------------------------------------------------------|

Outro
e|---------------------------------------------------------------------------|
B|---------------------------------------------------------------------------|
G|------7~~~~~---------------------------------------------------------------|
D|------7~~~~~---------------------------------------------------------------|
A|------5~~~~~---------------------------------------------------------------|
E|---------------------------------------------------------------------------|


************************************

| /   slide up
| \   slide down
| h   hammer-on
| p   pull-off
| ~   vibrato
| +   harmonic
| x   Mute note
| b   Bend
| pb  Pre-bend
| br  Bend release
| pbr Pre-bend release
| brb Bend release bend

************************************
            
Submit corrections

comments powered by Disqus
↑ Back to top | *Blink 182* Tabs for Even If She Falls. Lyrics for acoustic guitar and electric guitar. Tablatures and chords are parodies/interpretations of the original songs. You may use it for private study, scholarship, research or language learning purposes only