» » »

*Blink 182*, Even If She Falls Tabs (ver.2)

Artists:  A B C D E F G H I J K L M N O P Q R S T U V W X Y Z # 

Even If She Falls Tabs (ver.2)

*Blink 182* Tabs
Rating:
0/5 (0 votes)
Even If She Falls lessons Tabs too difficult? Try these video lessons and learn fast
                My Favorite Song in Neighborhoods
My First Tab by ear ever, This is the precise tab.

The whole song is here but i'm to lazy to put it in order so figure it out by yourself ok?

I've done the hard part already :)
(With kings_of_leon correction and Lyrics correcetion!)

Enjoy!
BLINK - 182

Main Riff
e|-----------------------------------------------------------------|
b|-----------------------------------------------------------------|
g|-----------------------------------------------------------------|
d|--4-4-4-------0-0-0-0-0-0-0-0-0-0-------0-0-0-2-2-2-0-0-0-2-0-0-0|
a|--------0-0-0----------------------------------------------------|
e|----------------------------------3-3-3--------------------------|

e|-----------------------------------------------------------------|
b|-----------------------------------------------------------------|
g|-----------------------------------------------------------------|
d|--4-4-4-------0-0-0-0-0-0-0-0-0-0-------0-0-0-2-2-2-0-0-0-2-0-0-0|
a|--------0-0-0---------------------4-4-4--------------------------|
e|-----------------------------------------------------------------|

Verse "And she was like a starry night...
e|-----------------------------------------------------------------|
b|-----------------------------------------------------------------|
g|-11-11-11----11-11/12\9-9-----9-9/11\7-7------11-11/12--11--9----|
d|-x--x--x-----x--x-/x-\x-x-----x-x/x-\x-x------x--x-/x---x---x----|
a|-9--9--9-----9--9-/10\7-7-----7-7/9-\5-5------9--9-/10--9---7----|
e|-----------------------------------------------------------------|


Chorus "Then The Night will begin..."
e|-2------0-----2-----3--------------------------------------------|
b|---3------3-----3-----3------------------------------------------|
g|-----2------2-----2-----2----------------------------------------|
d|-----------------------------------------------------------------|
a|-----------------------------------------------------------------|
e|-----------------------------------------------------------------|

Last bridge
e|------------------------------------------------------------------------|
b|------------------------------------------------------------------------|
g|-11-11-11---7-7-7----11-11-11-11-11-11-11-11-11---12-12-12--7-7-7--4-4-4|
d|-x--x--x----x-x-x----x--x--x--x--x--x--x--x--x----x--x--x---x-x-x--x-x-x|
a|-9--9--9----5-5-5----9--9--9--9--9--9--9--9--9----10-10-10--5-5-5--2-2-2|
e|------------------------------------------------------------------------|

Lyrics:
"Even If She Falls

And she was, like a starry night
Like a ferris wheel, full of blue-green eyes
And a heart of steel, always on her own
Almost never real

When the night will begin
The date will not end, even if she falls in love
Back, you wanna turn back
Your heart will attack, even if she falls in love



And she was, like a blade of ice
Like a lonely road, clear as day, alive
Always sharp and cold, always beautiful
I'm such a fool

When the night will begin
The date will not end, even if she falls in love
Back, you wanna turn back
Your heart will attack, even if she falls in love
Try to look in her eyes
The light is just right, even if she falls in love
And it isn't so bad
It's driving you mad, Even if she falls in love

When the night will begin
The date will not end, even if she falls in love
Back, you wanna turn back
Your heart will attack, even if she falls in love
Try to look in her eyes
The light is just right, even if she falls in love
And it isn't so bad
It's driving you mad, Even if she falls in love
            

comments powered by Disqus
↑ Back to top | *Blink 182* Tabs for Even If She Falls. Lyrics for acoustic guitar and electric guitar. Tablatures and chords are parodies/interpretations of the original songs. You may use it for private study, scholarship, research or language learning purposes only