» » »

*Blink 182*, Even If She Falls Tabs (ver.1)

Artists:  A B C D E F G H I J K L M N O P Q R S T U V W X Y Z # 

Even If She Falls Tabs (ver.1)

*Blink 182* Tabs
Rating:
0/5 (0 votes)
Even If She Falls lessons Tabs too difficult? Try these video lessons and learn fast
                Even If She Falls by Blink 182

Intro
-------------------------------------------------------|
-------------------------------------------------------|
-------------------------------------------------------|
-0-0-0-4-4-4-------0-0-0-0-0-0-0-0-------0-0-0-2-2-0-2-|
-------------0-0-0-------------------------------------|
-----------------------------------3-3-3---------------|

-----------------------------------------------------|
-----------------------------------------------------|
-----------------------------------------------------|
-0-4-4-4-------0-0-0-0-0-0-0-0-------0-0-0-2-2-0-2-0-|
---------0-0-0-----------------4-4-4-----------------|
-----------------------------------------------------|

-------------------------------------------------|
-------------------------------------------------|
-------------------------------------------------|
-4-4-4-------0-0-0-0-0-0-0-0-------0-0-0-2-2-0-2-|
-------0-0-0-------------------------------------|
-----------------------------3-3-3---------------|

-----------------------------------------------------|
-----------------------------------------------------|
-----------------------------------------------------|
-0-4-4-4-------0-0-0-0-0-0-0-0-------0-0-0-2-2-0-2-0-|
---------0-0-0-----------------4-4-4-----------------|
-----------------------------------------------------|

Verse
---------------------------------------|
---------------------------------------|
-11--11--11-11/12-9-9--9-9--9-9/11-7-7-|
--x---x---x--x----x-x--x-x--x-x----x-x-|
--9---9---9--9/10-7-7--7-7--7-7/-9-5-5-|
---------------------------------------|
                                         x3
----------------|
----------------|
-11-11/12-9-9-7-|
--x--x----x-x-x-|
--9--9/10-7-7-5-|
----------------|

Chorus
----------------------------|
-7------5------7------8-----|
---7------7------7------7---|
-----7------7------7------7-|  x2
----------------------------|
----------------------------|

-------------------------------------------------|
-------------------------------------------------|
-------------------------------------------------|
-4-4-4-------0-0-0-0-0-0-0-0-------0-0-0-2-2-0-2-|
-------0-0-0-------------------------------------|
-----------------------------3-3-3---------------|
                                                       x2
-----------------------------------------------------|
-----------------------------------------------------|
-----------------------------------------------------|
-0-4-4-4-------0-0-0-0-0-0-0-0-------0-0-0-2-2-0-2-0-|
---------0-0-0-----------------4-4-4-----------------|
-----------------------------------------------------|

Verse
---------------------------------------|
---------------------------------------|
-11--11--11-11/12-9-9--9-9--9-9/11-7-7-|
--x---x---x--x----x-x--x-x--x-x----x-x-|
--9---9---9--9/10-7-7--7-7--7-7/-9-5-5-|
---------------------------------------|
                                         x3
----------------|
----------------|
-11-11/12-9-9-7-|
--x--x----x-x-x-|
--9--9/10-7-7-5-|
----------------|

Chorus
----------------------------|
-7------5------7------8-----|
---7------7------7------7---|
-----7------7------7------7-|  x4
----------------------------|
----------------------------|

Bridge
guitar 1
-------------------------------------|
-7-7-7-------7-7-7-7-5-7-8--8--------|
-------7-7-7------------------7--7-0-|
-------------------------------------|
-------------------------------------|
-------------------------------------|

--------------------------------------------|
-7-7-7-------7-7-7-7-5-7-8--8-----------6-8-|
-------7-7-7------------------7--7----------|
-----------------------------------0--------|
--------------------------------------------|
--------------------------------------------|

--------------------------------------------|
-7-7-7-------7-7-7-7-5-7-8--8-----------6-8-|
-------7-7-7------------------7--7-0--------|
--------------------------------------------|
--------------------------------------------|
--------------------------------------------|

----------------------------------------|
-7-7-7-------7-7-7-7-5-7-8--8-----------|
-------7-7-7------------------7--7------|
-----------------------------------0----|
----------------------------------------|
----------------------------------------|
guitar 2
-----------------------------|
-7--7-5-5-7--8--8--8-8-10-10-|
-7--7-7-7-7--7--7--7-7--7--7-|
-7--7-7-7-7--7--7--7-7--7--7-|  x4
-----------------------------|
-----------------------------|

Chorus
guitar 1
----------------------------|
-7------5------7------8-----|
---7------7------7------7---|
-----7------7------7------7-|  x4
----------------------------|
----------------------------|

guitar 2
----------|
----------|
-7--------|
-7--------|  x5
-5--------|
----------|
            
Submit corrections

comments powered by Disqus
↑ Back to top | *Blink 182* Tabs for Even If She Falls. Lyrics for acoustic guitar and electric guitar. Tablatures and chords are parodies/interpretations of the original songs. You may use it for private study, scholarship, research or language learning purposes only