» » »

Dumpweed Bass tabs (ver.4)

Artists:  A B C D E F G H I J K L M N O P Q R S T U V W X Y Z # 

Dumpweed Bass tabs (ver.4)

*Blink 182*
Rating:
0/5 (0 votes)

Hard to play? Try these video lessons and learn fast.
                (Live)
This tab is for the Mark, Tom, and Travis Show (live) version of the song. It should be 
and I worked out the rhythms/structure as best I could but listening to the song will 

Key:
~ = let note ring
h = hammer on
p = pull off

1. Dumpweed:


Intro Part 1:(1x)
G|----------------------------------------------------------|
D|----------------------------------------------------------|
A|---------------------0~-------0-0~------------------------|
E|-0~-------0-0~--------------------------------------------|

Intro Part 2:(2x)
G|----------------------------------------------------------|
D|----------------------------------------------------------|
A|---------00000000-2222222222222200------------------------|
E|-00000000-------------------------------------------------|

Verse:(2x)
G|----------------------------------------------------------------|
D|----------------------------------------------------------------|
A|---------22222---------22222--00000000-22222--00000000-2222h4p2-|
E|-00000000------00000000-----------------------------------------|

Bridge:(1x)
G|----------------------------------------------------------------|
D|----------------------------------------------------------------|
A|--------------------0~---------0000000022222--------------------|
E|0~-------0-0~---------------------------------------------------|

Chorus:(1x)
G|--------------------------------------------------------------------|
D|--------------------------------------------------------------------|
A|---------2222h4p22-00000000-2222h4p22--------2222h4p22-00000000-2-2-|
E|-00000000----------------------------00000000-----------------------|

Intro Part 2 x 2

Verse x 1

Bridge x 1

Chorus x 2

Interlude/Outro Part 1:(2x)
G|------------------------------------------------------------------|
D|------------------------------------------------------------------|
A|---------22222---------22222--00000000-22222--00000000-2222h4p2---|
E|-00000000------00000000-------------------------------------------|

Interlude/Outro Part 2: (2x)
G|------------------------------------------------|
D|---------------------------------22222222-44444-|
A|-77777777-99999--77777777-99999--00000000-22222-|
E|-00000000-77777--00000000-77777-----------------|

**Note: Throwing in an extra open E as the song is ending sounds pretty good
            
Hard to play? Try these video lessons and learn fast. | Correct




comments powered by Disqus
↑ Back to top | Tablatures and chords are parodies/interpretations of the original songs. You may use it for private study, scholarship, research or language learning purposes only