» » »

*Blink 182*, Dumpweed Tabs (ver.3)

Artists:  A B C D E F G H I J K L M N O P Q R S T U V W X Y Z # 

Dumpweed Tabs (ver.3)

*Blink 182* Tabs
 Rating:
4/5 (4 votes)
Dumpweed lessons Tabs too difficult? Try these video lessons and learn fast
1
                Intro
e-------------------------------------------------------------
B-------------------------------------------------------------
G-------------------------------------------------------------
D----6-6h7p6-------------6-6h7p6------------6-6h7p6-----------
A--------------0--9-7----------------0-9--0-----------0--9-0--
E--0---------7--------0---------7-------------------7---------

e------------------
B------------------
G------------------
D----6-6h7p6--9----
A--0--------------9
E---------------7--

e--4p0---0-4p0---0--2p0---0--2p0---0-4p0---0--4p0---0--5p0---0--5p0---0-
B------0-------0--------0--------0-------0--------0--------0--------0---
G-----------------------------------------------------------------------
D-----------------------------------------------------------------------
A-----------------------------------------------------------------------
E-----------------------------------------------------------------------

e----------------------------------------------------------------------
B----------------------------------------------------------------------
G----------------------------------------------------------------------
D-------------44444------------44444--2-2222222--44444--22222222--44444
A--2-2222222--22222--22222222--22222--0-0000000--22222--00000000--22222
E--0-0000000---------00000000------------------------------------------
pm   ...............................    ..............  ...............
e-------------------------------------------------------------
B-------------------------------------------------------------
G-------------------------------------------------------------
D----6-6h7p6-------------6-6h7p6------------6-6h7p6-----------
A--------------0--9-7----------------0-9--0-----------0--9-0--
E--0---------7--------0---------7-------------------7---------

e------------------
B------------------
G------------------
D----6-6h7p6--9----
A--0--------------9
E---------------7--

e----------------------------------------
B----------------------------------------
G------------44444444--22222222--44444444
D--22222222--44444444--22222222--44444444
A--22222222--22222222--00000000--22222222
E--00000000------------------------------

e------------------------------------
B------------------------------------
G------------44444444--22222222--4--4
D--22222222--44444444--22222222--4--4
A--22222222--22222222--00000000--2--2
E--00000000--------------------------

e--4p0---0-4p0---0--2p0---0--2p0---0-4p0---0--4p0---0--5p0---0--5p0---0-
B------0-------0--------0--------0-------0--------0--------0--------0---
G-----------------------------------------------------------------------
D-----------------------------------------------------------------------
A-----------------------------------------------------------------------
E-----------------------------------------------------------------------

e----------------------------------------------------------------------
B----------------------------------------------------------------------
G----------------------------------------------------------------------
D-------------44444------------44444--2-2222222--44444--22222222--44444
A--2-2222222--22222--22222222--22222--0-0000000--22222--00000000--22222
E--0-0000000---------00000000------------------------------------------
pm   ...............................    ..............  ...............
e----------------------------------------
B----------------------------------------
G------------44444444--22222222--44444444
D--22222222--44444444--22222222--44444444
A--22222222--22222222--00000000--22222222
E--00000000------------------------------

e------------------------------------
B------------------------------------
G------------44444444--22222222--4--4
D--22222222--44444444--22222222--4--4
A--22222222--22222222--00000000--2--2
E--00000000--------------------------

e-------------------------------------------------------------
B-------------------------------------------------------------
G-------------------------------------------------------------
D------------44444------------44444--22222222--44444--22222222
A--22222222--22222--22222222--22222--00000000--22222--00000000
E--00000000---------00000000----------------------------------
pm ...........................................................

e-4p0---0----2p0---0----4p0---0----5p0---0--
B-----0---0------0---0------0---0------0---0
G-------------------------------------------
D-------------------------------------------
A-------------------------------------------
E-------------------------------------------

e-4p0---0----2p0---0----4p0---0----5p0---0-2
B-----0---0------0---0------0---0------0----
G-------------------------------------------
D-------------------------------------------
A-------------------------------------------
E-------------------------------------------

e-4p0---0----2p0---0----4p0---0----5p0---0--
B-----0---0------0---0------0---0------0---0
G-------------------------------------------
D-------------------------------------------
A-------------------------------------------
E-------------------------------------------

e-4p0---0----2p0---0----4p0---0----5p0---0-2
B-----0---0------0---0------0---0------0----
G-------------------------------------------
D-------------------------------------------
A-------------------------------------------
E-------------------------------------------
            
Submit corrections

comments powered by Disqus
↑ Back to top | *Blink 182* Tabs for Dumpweed. Lyrics for acoustic guitar and electric guitar. 1 Tablatures and chords are parodies/interpretations of the original songs. You may use it for private study, scholarship, research or language learning purposes only