» » »

Dumpweed Tabs (ver.1)

Artists:  A B C D E F G H I J K L M N O P Q R S T U V W X Y Z # 

Dumpweed Tabs (ver.1)

*Blink 182*
Rating:
0/5 (0 votes)
Tabs too difficult? Try these video lessons and learn fast.
                Intro Part 1: 
E:------------------------------- 
B:------------------------------- 
G:------------------------------- 
D:-6-6h7p6-----4----6-6h7p6-----4 
A:------------------------------- 
E:0--------7-5--5--0--------7-5-- 

Intro Part 1: 
E:------------------------------ 
B:------------------------------ 
G:------------------------------ 
D:-6-6h7p6-----4---6-6h7p6--9--- 
A:0---------------0----------0-9 
E:---------7-5--5--------------- 

Intro Part 2: 
E:------------------------------------------------- 
B:9p7-0-9p7-0-7p5-0-7p5-0-9p7-0-9p7-0-10p9-0-10p9-0 
G:------------------------------------------------- 
D:------------------------------------------------- 
A:------------------------------------------------- 
E:------------------------------------------------- 

Verse: 
E:--------------------------------------------------- 
B:--------------------------------------------------- 
G:--------------------------------------------------- 
D:----------44444----------44444-2222222-44444-222222 
A:222222222-22222-22222222-22222-0000000-22222-000000 
E:000000000-------00000000--------------------------- 

Chorus: 
E:----------------------------------------------- 
B:----------------------------------------------- 
G:-----------4444444444-2222222222222-44444444444 
D:2222222222-4444444444-2222222222222-44444444444 
A:2222222222-2222222222-0000000000000-22222222222 
E:0000000000------------------------------------- 

Outro 
E:----------------------------------------------------- 
B:9-7-0-5-0-7-5-0-5-0-9-7-0-5-0-9-7-0-7-5-0-5-0-10-9-0- 
G:----------------------------------------------------- 
D:----------------------------------------------------- 
A:----------------------------------------------------- 
E:----------------------------------------------------- 
(P.M...................................................)
            
Tabs too difficult? Try these video lessons and learn fast.


comments powered by Disqus
↑ Back to top | Tablatures and chords are parodies/interpretations of the original songs. You may use it for private study, scholarship, research or language learning purposes only