» » »

*Blink 182*, Dumpweed Chords (ver.2)

Artists:  A B C D E F G H I J K L M N O P Q R S T U V W X Y Z # 

Dumpweed Chords (ver.2)

*Blink 182* Tabs
Rating:
0/5 (0 votes)
Dumpweed lessons Tabs too difficult? Try these video lessons and learn fast
                Blink 182
Enema Of The State
1999 MCA Records

1.) Dumpweed

Key: E

Tuning: Standard EADGBe

Chords used:
E - 022100
B - x24442
A - x02220


Intro:

Part 1:
E--A---B-


Guitar 2:
         E                       A                 B
e|------------------|--------------------------|-------|
B|------------------|--------------------------|-------|
G|----1-2-1---------|----1-2-1-----------1-2-1-|-4-----|
D|----------2---4---|----------2---4-----------|-----4-|
A|------------2---2-|-0----------2---2-0-------|---2---|
E|-0----------------|--------------------------|-------|
         x2


Part 2:
E-A-B-- x2


Guitar 2:
     E       A                B
e|-4-0---|-2-0---|-4-0----4-0----5-4-0--5-4-0-|
B|-----0-|-----0-|-----0------0---------------|
G|-------|-------|----------------------------|
D|-------|-------|----------------------------| x2
A|-------|-------|----------------------------|
E|-------|-------|----------------------------|
     x2      x2


Verse 1:
E
  It's understood
  B
I said it many ways
E
  Too scared to run
B
I'm too scared stay
A
  I said I'd leave but
B
I could never leave her
A                  B
  And if I did you know
I'd never cheat her
E
  But this I ask it's
B
what I want to know
E
  How would you feel if
B
I should choose to go
A                  B
  Another guy, you think
he'd be unlike me
A                  B
  Another guy, you think
he'd want to fight me


(Repeat Intro Part 1)


Chorus:
E               B
  She's a dove, she's
a f**king nightmare
A                  B
  Unpredictable it was
my mistake to stay here
E
  On the go and it's
B               A
way too late to play
         B
I need a girl
that I can train


(Repeat Intro Part 2)


Verse 2:
E
  I heard it once I'm
B
sure I heard it twice
E
  My dad used to give me
B
all of his advice
A
  He would say you got to
B
turn your back and run now
A                 B
  Come on son you haven't
got a chance now


(Repeat Chorus twice)


Interlude: E-B-E-B-A-B-A-B


Outro:
E        B               E
  Need a girl that I can train
       B               A
Need a girl that I can train
B
Turn your back and run now
A     B
  You haven't got a chance now


2:04: E-B-E-B-A-B-A-B


Guitar 2: at 2:04
        E             B             E             B
e|-4-0----0----|-2-0----0----|-4-0----0----|-5-0----0----|
B|-----0-----0-|-----0-----0-|-----0-----0-|-----0-----0-|
G|-------------|-------------|-------------|-------------|
D|-------------|-------------|-------------|-------------|
A|-------------|-------------|-------------|-------------|
E|-------------|-------------|-------------|-------------|

        A             B             A             B
e|-4-0----0----|-2-0----0----|-4-0----0----|-5-0----0----|
B|-----0-----0-|-----0-----0-|-----0-----0-|-----0-----0-|
G|-------------|-------------|-------------|-------------|
D|-------------|-------------|-------------|-------------|
A|-------------|-------------|-------------|-------------|
E|-------------|-------------|-------------|-------------|


E        B               E
  Need a girl that I can train
       B               A
Need a girl that I can train
B
Turn your back and run now
A     B
  You haven't got a chance now
            
Submit corrections

comments powered by Disqus
↑ Back to top | *Blink 182* Chords for Dumpweed. Lyrics for acoustic guitar and electric guitar. Tablatures and chords are parodies/interpretations of the original songs. You may use it for private study, scholarship, research or language learning purposes only