» » »

*Blink 182*, Dumpweed Tabs (ver.6)

Artists:  A B C D E F G H I J K L M N O P Q R S T U V W X Y Z # 

Dumpweed Tabs (ver.6)

*Blink 182* Tabs
Rating:
0/5 (0 votes)
Dumpweed lessons Tabs too difficult? Try these video lessons and learn fast
                palm muted= *
INTRO
e|-----------------------------------------|
B|-----------------------------------------|
G|-----------------------------------------|
D|---6-6h7p6------------6-6h7p6------------|
A|-------------0-9-0---------------0-9-----|
E|-0---------7--------0----------7---------|

e|-----------------------------------------|
B|-----------------------------------------|
G|-----------------------------------------|
D|---6-6h7p6-------------6-6h7p6--9--------|
A|-0------------0-9-0--0------------0-9----|
E|------------7----------------------------|
SOLO LIKE THING
e|-4p0---4p0---2p0---2p0---4p0---4p0---5p0---5p0------|
B|-----0-----0-----0-----0-----0-----0-----0-----0----|
G|----------------------------------------------------|
D|----------------------------------------------------|  2x
A|----------------------------------------------------|
E|----------------------------------------------------|

VERSE
e|-------------------------------------------------------|
B|-------------------------------------------------------|
G|-------------------------------------------------------|
D|-2-2222-44444-22222-44444-2-22222-44444-22222-44444----|
A|-2-2222-22222-22222-22222-0-00000-22222-00000-22222----|
E|-0-0000-------00000------------------------------------|
     **** ***** ***** *****   ***** ***** ***** *****
then again the intro

CHORUS

e|-------------------------------------|
B|-------------------------------------|
G|--------0-4444444-0-222222-0-444444--|
D|-222222-0-4444444-0-222222-0-444444--|  2x
A|-222222-0-2222222-0-000000-0-222222--|
E|-000000------------------------------|

in the last time in place of the last 
4   
4   thing do this
2

e|-----|
B|-----|
G|-4-4-|
D|-4-4-|
A|-2-2-|
E|-----|

THEN AGAIN THE SOLO LIKE THING
THEN THE VERSE AGAIN
THEN THE CHORUS
AFTER ALL THAT DO THIS KIND OF INTERLUDE:

ALL PALM MUTED
e|-------------------------------------------------------|
B|-------------------------------------------------------|
G|-------------------------------------------------------|
D|-2222222-44444-222222-44444-222222-44444-22222-44444---|
A|-2222222-22222-222222-22222-000000-22222-00000-22222---|
E|-0000000-------000000----------------------------------|
   ******* ***** ****** ***** ****** ***** ***** *****

OUTRO
(ALMOST SAME AS THE SOLO BUT A LITTLE SLOWER)

FIRST PART
e|-4p0---0---2p0---0---4p0---0---5p0---0-----|
B|-----0---0-----0---0-----0---0-----0---0---|
G|-------------------------------------------|
D|-------------------------------------------|
A|-------------------------------------------|
E|-------------------------------------------|


2ND PART
e|-4p0---0---2p0---0---4p0---0---5p0----0-2----|
B|-----0---0-----0---0-----0---0-----0---------|
G|---------------------------------------------|
D|---------------------------------------------|
A|---------------------------------------------|
E|---------------------------------------------|
THEN REPEAT THE FIRTS PART AND END ON

E|-0~-|
B|-0~-|  ON THE STUDIO VERSION OF THE SONG TOM PLAYS THE
G|----|  OUTRO WITH PALM MUTED BUT IN LIVE SHOWS HE PLAYS
D|----|   IT WITHOUT IT AND HE LETS RINGING THE 0´S
A|----|
E|----|
THAT´S IT I THINK THIS IS BETTER THAN THE OTHER PASTS VERSIONS IVE ´PLAYING THIS SONG A 
LOT WITH MY BAND AND SOUNDS JUST LIKE IT SO ENJOY PLAYING THIS SONG
            

comments powered by Disqus
↑ Back to top | *Blink 182* Tabs for Dumpweed. Lyrics for acoustic guitar and electric guitar. Tablatures and chords are parodies/interpretations of the original songs. You may use it for private study, scholarship, research or language learning purposes only