» » »

*Blink 182*, Boxing Day Bass tabs (ver.4)

Artists:  A B C D E F G H I J K L M N O P Q R S T U V W X Y Z # 

Boxing Day Bass tabs (ver.4)

*Blink 182* Tabs
 Rating:
4/5 (4 votes)
Boxing Day lessons Tabs too difficult? Try these video lessons and learn fast
1
                


            G|--------------------------------------------------------|
Intro       D|--------------------(No Bass)---------------------------|  
            A|--------------------------------------------------------|
            E|--------------------------------------------------------|

            G|--------------------------------------------------------|
            D|--------------------------------------------------------|   x4   
            A|----------------------------3--3--3--3--3--3--3---------|     
            E|-----3-------2---5---0----3-----------------------------|
                                                                         

            G|--------------------------------------------------------|
Verse       D|--------------------------------------------------------|   x4
            A|----------------------------3--3--3--3--3--3--3---------|
            E|-----3-------2---5---0----3-----------------------------|


            G|--------------------------------------------------------|
Pre-Chorus  D|--------------------------------------------------------|   
            A|----------(5x16)------------(5x16)----------------------|
            E|-(3x16)------------(0x16)-------------------------------|

            G|--------------------------------------------------------|
            D|--------------------------------------------------------|   
            A|----------(5x16)----------------------------------------|
            E|-(3x16)------------(0x16)-------------------------------|



            G|--------------------------------------------------------|
Chorus      D|--------------------------------------------------------|   x2
            A|--------2-(3x12)-2-2-0-0--------2-(3x8)-5-5-3-3-2-2-0-0-|
            E|-(3x14)------------------(0x14)-------------------------|


            G|--------------------------------------------------------|
            D|--------------------------------------------------------|   
            A|--------------------------------------------------------|
            E|-3------------------------3-----------------------------|

            G|--------------------------------------------------------|
Verse       D|--------------------------------------------------------|   x4
            A|----------------------------3--3--3--3--3--3--3---------|
            E|-----3-------2---5---0----3-----------------------------|

            G|--------------------------------------------------------|
Pre-Chorus  D|-------------------(No Bass)----------------------------|   
            A|--------------------------------------------------------|
            E|--------------------------------------------------------|

            G|--------------------------------------------------------|
Chorus      D|--------------------------------------------------------|   x2
            A|--------2-(3x12)-2-2-0-0--------2-(3x8)-5-5-3-3-2-2-0-0-|
            E|-(3x14)------------------(0x14)-------------------------|

            G|--------------------------------------------------------|
Bridge      D|--------------------------------------------------------|   x4
            A|----------------------------3--3--3--3--3--3--3---------|
            E|-----3-------2---5---0----3-----------------------------|

            G|--------------------------------------------------------|
Chorus      D|-------------------(No Bass)----------------------------|   
            A|--------------------------------------------------------|
            E|--------------------------------------------------------|

            G|--------------------------------------------------------|
Outro       D|--------------------------------------------------------|   x2
            A|--------2-(3x12)-2-2-0-0--------2-(3x8)-5-5-3-3-2-2-0-0-|
            E|-(3x14)------------------(0x14)-------------------------|

            G|--------------------------------------------------------|
            D|--------------------------------------------------------|   
            A|--------------------------------------------------------|
            E|-3------------------------------------------------------|
            
Submit corrections

comments powered by Disqus
↑ Back to top | *Blink 182* Bass for Boxing Day. Lyrics for acoustic guitar and electric guitar. 1 Tablatures and chords are parodies/interpretations of the original songs. You may use it for private study, scholarship, research or language learning purposes only