» » »

*Blink 182*, Boxing Day Bass tabs (ver.1)

Artists:  A B C D E F G H I J K L M N O P Q R S T U V W X Y Z # 

Boxing Day Bass tabs (ver.1)

*Blink 182* Tabs
Rating:
0/5 (0 votes)
Hard to play? Try these video lessons and learn fast.
                -------------------------------------------------------------------------------
                             BOXING DAY - blink-182
-------------------------------------------------------------------------------

Tuning: Standard
Note: I've tried to write down the rhytmics in the tab but listen to the song for higher accuracy

Intro
([)Guitar only for 8 bars, then)
G|--------------------------------|
D|--------------------------------|
A|------------------------3-3-3---| (x4)
E|-3-3----3-2----5-0----0---------|

Verse
G|--------------------------------|
D|--------------------------------|
A|------------------------3-3-3---| (x2)
E|-3-3----3-2----5-0----0---------|

G|------------------------------------|
D|----12----12------------------5-----|
A|-/10----10--9-9-9-9---7----/3---3---| (x2)
E|--------------------0---0-----------|
("10" and "12"; not "1" "0" and "1" "2")

Pre-Chorus
G|---------------------------------------------------------|
D|---------------------------------------------------------|
A|---------------55-5-555-555----------------55-5-555-555--|
E|-33-3-333-333----------------00-0-000-000----------------|

G|---------------------------------------------------------|
D|---------------------------------------------------------|
A|---------------55-5-555-555------------------------------|
E|-33-3-333-333----------------00-0-000-000-[====REST====]-|

Chorus (I'll let it to you to figure out the rhytmics on this)
G|------------------------------------------------|
D|------------------------------------------------|
A|----------2-3333333-2-0----------2-3333-5-3-2-0-| (x2)
E|-33333333---------------00000000----------------|

Some sort of fill between Chorus and Verse
G|-----------------------------------|
D|-----------------------------------|
A|-----------------------------------|
E|-3----------------3----------------|

Verse

Pre-Chorus (no bass here this time)

Chorus

Bridge (Same as Intro) (x4)

Pre-Chorus (no bass here)

Chorus

As soon as Chorus ends:
G|-----------------------|
D|-----------------------|
A|-----------------------|
E|-3-[====LET RING====]--|

Outro (guitar only)


| /  slide up
| \  slide down
| h  hammer-on
| p  pull-off
| ~  vibrato
| +  harmonic
| x  Mute note
===============================================================================
            

comments powered by Disqus
↑ Back to top | *Blink 182* Bass for Boxing Day. Lyrics for acoustic guitar and electric guitar. Tablatures and chords are parodies/interpretations of the original songs. You may use it for private study, scholarship, research or language learning purposes only